  0
SECTION
  2
HEADER
  9
$ACADVER
  1
AC1015
  9
$ACADMAINTVER
 70
     6
  9
$DWGCODEPAGE
  3
ANSI_1254
  9
$INSBASE
 10
0.0
 20
0.0
 30
0.0
  9
$EXTMIN
 10
0.0
 20
0.0
 30
0.0
  9
$EXTMAX
 10
279.4
 20
215.9
 30
0.0
  9
$LIMMIN
 10
0.0
 20
0.0
  9
$LIMMAX
 10
279.4
 20
215.9
  9
$ORTHOMODE
 70
     0
  9
$REGENMODE
 70
     1
  9
$FILLMODE
 70
     1
  9
$QTEXTMODE
 70
     0
  9
$MIRRTEXT
 70
     1
  9
$LTSCALE
 40
1.0
  9
$ATTMODE
 70
     1
  9
$TEXTSIZE
 40
3.5
  9
$TRACEWID
 40
1.0
  9
$TEXTSTYLE
  7
Standard
  9
$CLAYER
  8
0
  9
$CELTYPE
  6
ByLayer
  9
$CECOLOR
 62
   256
  9
$CELTSCALE
 40
1.0
  9
$DISPSILH
 70
     0
  9
$DIMSCALE
 40
1.0
  9
$DIMASZ
 40
3.5
  9
$DIMEXO
 40
1.0
  9
$DIMDLI
 40
3.75
  9
$DIMRND
 40
0.0
  9
$DIMDLE
 40
0.0
  9
$DIMEXE
 40
1.0
  9
$DIMTP
 40
0.0
  9
$DIMTM
 40
0.0
  9
$DIMTXT
 40
3.5
  9
$DIMCEN
 40
2.5
  9
$DIMTSZ
 40
0.0
  9
$DIMTOL
 70
     0
  9
$DIMLIM
 70
     0
  9
$DIMTIH
 70
     1
  9
$DIMTOH
 70
     1
  9
$DIMSE1
 70
     0
  9
$DIMSE2
 70
     0
  9
$DIMTAD
 70
     1
  9
$DIMZIN
 70
     0
  9
$DIMBLK
  1

  9
$DIMASO
 70
     1
  9
$DIMSHO
 70
     1
  9
$DIMPOST
  1

  9
$DIMAPOST
  1

  9
$DIMALT
 70
     0
  9
$DIMALTD
 70
     3
  9
$DIMALTF
 40
0.0393700787
  9
$DIMLFAC
 40
1.0
  9
$DIMTOFL
 70
     1
  9
$DIMTVP
 40
0.0
  9
$DIMTIX
 70
     0
  9
$DIMSOXD
 70
     0
  9
$DIMSAH
 70
     0
  9
$DIMBLK1
  1

  9
$DIMBLK2
  1

  9
$DIMSTYLE
  2
ISO-25
  9
$DIMCLRD
 70
     0
  9
$DIMCLRE
 70
     0
  9
$DIMCLRT
 70
     0
  9
$DIMTFAC
 40
1.0
  9
$DIMGAP
 40
1.524
  9
$DIMJUST
 70
     0
  9
$DIMSD1
 70
     0
  9
$DIMSD2
 70
     0
  9
$DIMTOLJ
 70
     0
  9
$DIMTZIN
 70
     0
  9
$DIMALTZ
 70
     0
  9
$DIMALTTZ
 70
     0
  9
$DIMUPT
 70
     0
  9
$DIMDEC
 70
     2
  9
$DIMTDEC
 70
     2
  9
$DIMALTU
 70
     2
  9
$DIMALTTD
 70
     3
  9
$DIMTXSTY
  7
Standard
  9
$DIMAUNIT
 70
     0
  9
$DIMADEC
 70
     2
  9
$DIMALTRND
 40
0.0
  9
$DIMAZIN
 70
     0
  9
$DIMDSEP
 70
    44
  9
$DIMATFIT
 70
     3
  9
$DIMFRAC
 70
     0
  9
$DIMLDRBLK
  1

  9
$DIMLUNIT
 70
     2
  9
$DIMLWD
 70
    -2
  9
$DIMLWE
 70
    -2
  9
$DIMTMOVE
 70
     0
  9
$LUNITS
 70
     2
  9
$LUPREC
 70
     2
  9
$SKETCHINC
 40
1.0
  9
$FILLETRAD
 40
10.0
  9
$AUNITS
 70
     0
  9
$AUPREC
 70
     2
  9
$MENU
  1
.
  9
$ELEVATION
 40
0.0
  9
$PELEVATION
 40
0.0
  9
$THICKNESS
 40
0.0
  9
$LIMCHECK
 70
     0
  9
$CHAMFERA
 40
0.0
  9
$CHAMFERB
 40
0.0
  9
$CHAMFERC
 40
0.0
  9
$CHAMFERD
 40
0.0
  9
$SKPOLY
 70
     0
  9
$TDCREATE
 40
2458985.663665648
  9
$TDUCREATE
 40
2458985.538665648
  9
$TDUPDATE
 40
2458985.663665903
  9
$TDUUPDATE
 40
2458985.538665903
  9
$TDINDWG
 40
0.0000000116
  9
$TDUSRTIMER
 40
0.0000000116
  9
$USRTIMER
 70
     1
  9
$ANGBASE
 50
0.0
  9
$ANGDIR
 70
     0
  9
$PDMODE
 70
     0
  9
$PDSIZE
 40
-1.0
  9
$PLINEWID
 40
0.0
  9
$SPLFRAME
 70
     0
  9
$SPLINETYPE
 70
     6
  9
$SPLINESEGS
 70
     8
  9
$HANDSEED
  5
C0
  9
$SURFTAB1
 70
     6
  9
$SURFTAB2
 70
     6
  9
$SURFTYPE
 70
     6
  9
$SURFU
 70
     6
  9
$SURFV
 70
     6
  9
$UCSBASE
  2

  9
$UCSNAME
  2

  9
$UCSORG
 10
0.0
 20
0.0
 30
0.0
  9
$UCSXDIR
 10
1.0
 20
0.0
 30
0.0
  9
$UCSYDIR
 10
0.0
 20
1.0
 30
0.0
  9
$UCSORTHOREF
  2

  9
$UCSORTHOVIEW
 70
     0
  9
$UCSORGTOP
 10
0.0
 20
0.0
 30
0.0
  9
$UCSORGBOTTOM
 10
0.0
 20
0.0
 30
0.0
  9
$UCSORGLEFT
 10
0.0
 20
0.0
 30
0.0
  9
$UCSORGRIGHT
 10
0.0
 20
0.0
 30
0.0
  9
$UCSORGFRONT
 10
0.0
 20
0.0
 30
0.0
  9
$UCSORGBACK
 10
0.0
 20
0.0
 30
0.0
  9
$PUCSBASE
  2

  9
$PUCSNAME
  2

  9
$PUCSORG
 10
0.0
 20
0.0
 30
0.0
  9
$PUCSXDIR
 10
1.0
 20
0.0
 30
0.0
  9
$PUCSYDIR
 10
0.0
 20
1.0
 30
0.0
  9
$PUCSORTHOREF
  2

  9
$PUCSORTHOVIEW
 70
     0
  9
$PUCSORGTOP
 10
0.0
 20
0.0
 30
0.0
  9
$PUCSORGBOTTOM
 10
0.0
 20
0.0
 30
0.0
  9
$PUCSORGLEFT
 10
0.0
 20
0.0
 30
0.0
  9
$PUCSORGRIGHT
 10
0.0
 20
0.0
 30
0.0
  9
$PUCSORGFRONT
 10
0.0
 20
0.0
 30
0.0
  9
$PUCSORGBACK
 10
0.0
 20
0.0
 30
0.0
  9
$USERI1
 70
     0
  9
$USERI2
 70
     0
  9
$USERI3
 70
     0
  9
$USERI4
 70
     0
  9
$USERI5
 70
     0
  9
$USERR1
 40
0.0
  9
$USERR2
 40
0.0
  9
$USERR3
 40
0.0
  9
$USERR4
 40
0.0
  9
$USERR5
 40
0.0
  9
$WORLDVIEW
 70
     1
  9
$SHADEDGE
 70
     3
  9
$SHADEDIF
 70
    70
  9
$TILEMODE
 70
     1
  9
$MAXACTVP
 70
    64
  9
$PINSBASE
 10
0.0
 20
0.0
 30
0.0
  9
$PLIMCHECK
 70
     0
  9
$PEXTMIN
 10
1.0000000000E+20
 20
1.0000000000E+20
 30
1.0000000000E+20
  9
$PEXTMAX
 10
-1.0000000000E+20
 20
-1.0000000000E+20
 30
-1.0000000000E+20
  9
$PLIMMIN
 10
0.0
 20
0.0
  9
$PLIMMAX
 10
420.0
 20
297.0
  9
$UNITMODE
 70
     0
  9
$VISRETAIN
 70
     1
  9
$PLINEGEN
 70
     0
  9
$PSLTSCALE
 70
     1
  9
$TREEDEPTH
 70
  3020
  9
$CMLSTYLE
  2
Standard
  9
$CMLJUST
 70
     0
  9
$CMLSCALE
 40
20.0
  9
$PROXYGRAPHICS
 70
     1
  9
$MEASUREMENT
 70
     1
  9
$CELWEIGHT
370
    -1
  9
$ENDCAPS
280
     0
  9
$JOINSTYLE
280
     0
  9
$LWDISPLAY
290
     1
  9
$INSUNITS
 70
     4
  9
$HYPERLINKBASE
  1

  9
$STYLESHEET
  1

  9
$XEDIT
290
     1
  9
$CEPSNTYPE
380
     0
  9
$PSTYLEMODE
290
     1
  9
$FINGERPRINTGUID
  2
{8c83a62a-20e8-4174-9243-8ff9ae980f98}
  9
$VERSIONGUID
  2
{FAEB1C32-E019-11D5-929B-00C0DF256EC4}
  9
$EXTNAMES
290
     1
  9
$PSVPSCALE
 40
0.0
  9
$OLESTARTUP
290
     0
  0
ENDSEC
  0
SECTION
  2
CLASSES
  0
CLASS
  1
ACDBDICTIONARYWDFLT
  2
AcDbDictionaryWithDefault
  3
ObjectDBX Classes
 90
        0
280
     0
281
     0
  0
CLASS
  1
VISUALSTYLE
  2
AcDbVisualStyle
  3
ObjectDBX Classes
 90
     4095
280
     0
281
     0
  0
CLASS
  1
MATERIAL
  2
AcDbMaterial
  3
ObjectDBX Classes
 90
     1153
280
     0
281
     0
  0
CLASS
  1
SCALE
  2
AcDbScale
  3
ObjectDBX Classes
 90
     1153
280
     0
281
     0
  0
CLASS
  1
TABLESTYLE
  2
AcDbTableStyle
  3
ObjectDBX Classes
 90
     4095
280
     0
281
     0
  0
CLASS
  1
MLEADERSTYLE
  2
AcDbMLeaderStyle
  3
ACDB_MLEADERSTYLE_CLASS
 90
     4095
280
     0
281
     0
  0
CLASS
  1
SUN
  2
AcDbSun
  3
SCENEOE
 90
     1153
280
     0
281
     0
  0
CLASS
  1
ACDBPLACEHOLDER
  2
AcDbPlaceHolder
  3
ObjectDBX Classes
 90
        0
280
     0
281
     0
  0
CLASS
  1
LAYOUT
  2
AcDbLayout
  3
ObjectDBX Classes
 90
        0
280
     0
281
     0
  0
ENDSEC
  0
SECTION
  2
TABLES
  0
TABLE
  2
VPORT
  5
8
330
0
100
AcDbSymbolTable
 70
     1
  0
VPORT
  5
29
330
8
100
AcDbSymbolTableRecord
100
AcDbViewportTableRecord
  2
*Active
 70
     0
 10
0.0
 20
0.0
 11
1.0
 21
1.0
 12
139.7
 22
107.95
 13
0.0
 23
0.0
 14
10.0
 24
10.0
 15
10.0
 25
10.0
 16
0.0
 26
0.0
 36
1.0
 17
0.0
 27
0.0
 37
0.0
 40
215.9
 41
1.2941176471
 42
50.0
 43
0.0
 44
0.0
 50
0.0
 51
0.0
 71
     0
 72
  2000
 73
     1
 74
     3
 75
     0
 76
     0
 77
     0
 78
     0
281
     0
 65
     1
110
0.0
120
0.0
130
0.0
111
1.0
121
0.0
131
0.0
112
0.0
122
1.0
132
0.0
 79
     0
146
0.0
  0
ENDTAB
  0
TABLE
  2
LTYPE
  5
5
330
0
100
AcDbSymbolTable
 70
     6
  0
LTYPE
  5
14
330
5
100
AcDbSymbolTableRecord
100
AcDbLinetypeTableRecord
  2
ByBlock
 70
     0
  3

 72
    65
 73
     0
 40
0.0
  0
LTYPE
  5
15
330
5
100
AcDbSymbolTableRecord
100
AcDbLinetypeTableRecord
  2
ByLayer
 70
     0
  3

 72
    65
 73
     0
 40
0.0
  0
LTYPE
  5
16
330
5
100
AcDbSymbolTableRecord
100
AcDbLinetypeTableRecord
  2
Continuous
 70
     0
  3
Solid line
 72
    65
 73
     0
 40
0.0
  0
LTYPE
  5
6E
330
5
100
AcDbSymbolTableRecord
100
AcDbLinetypeTableRecord
  2
HIDDEN
 70
     0
  3
Hidden __ __ __ __ __ __ __ __ __ __ __ __ __ __
 72
    65
 73
     2
 40
1.905
 49
1.27
 74
     0
 49
-0.635
 74
     0
  0
LTYPE
  5
6F
330
5
100
AcDbSymbolTableRecord
100
AcDbLinetypeTableRecord
  2
PHANTOM
 70
     0
  3
Phantom ______  __  __  ______  __  __  ______
 72
    65
 73
     6
 40
12.7
 49
6.35
 74
     0
 49
-1.27
 74
     0
 49
1.27
 74
     0
 49
-1.27
 74
     0
 49
1.27
 74
     0
 49
-1.27
 74
     0
  0
LTYPE
  5
70
330
5
100
AcDbSymbolTableRecord
100
AcDbLinetypeTableRecord
  2
CENTER
 70
     0
  3
Center ____ _ ____ _ ____ _ ____ _ ____ _ ____
 72
    65
 73
     4
 40
10.16
 49
6.35
 74
     0
 49
-1.27
 74
     0
 49
1.27
 74
     0
 49
-1.27
 74
     0
  0
LTYPE
  5
71
330
5
100
AcDbSymbolTableRecord
100
AcDbLinetypeTableRecord
  2
CENTERX2
 70
     0
  3
Center (2x) ________  __  ________  __  _____
 72
    65
 73
     4
 40
20.32
 49
12.7
 74
     0
 49
-2.54
 74
     0
 49
2.54
 74
     0
 49
-2.54
 74
     0
  0
LTYPE
  5
72
330
5
100
AcDbSymbolTableRecord
100
AcDbLinetypeTableRecord
  2
DOT2
 70
     0
  3
Dot (.5x) ........................................
 72
    65
 73
     2
 40
0.635
 49
0.0
 74
     0
 49
-0.635
 74
     0
  0
ENDTAB
  0
TABLE
  2
LAYER
  5
2
330
0
100
AcDbSymbolTable
 70
    17
  0
LAYER
  5
10
330
2
100
AcDbSymbolTableRecord
100
AcDbLayerTableRecord
  2
0
 70
     0
 62
     7
  6
Continuous
370
    -3
390
F
  0
LAYER
  5
73
330
2
100
AcDbSymbolTableRecord
100
AcDbLayerTableRecord
  2
FORMAT
 70
     0
 62
     7
  6
Continuous
370
    -3
390
F
  0
LAYER
  5
74
330
2
100
AcDbSymbolTableRecord
100
AcDbLayerTableRecord
  2
YARDIMCI_GEOMETRI
 70
     0
 62
    -6
  6
Continuous
290
     0
370
    -3
390
F
  0
LAYER
  5
75
330
2
100
AcDbSymbolTableRecord
100
AcDbLayerTableRecord
  2
SAYFA_CERCEVESI
 70
     0
 62
     7
  6
Continuous
370
    25
390
F
  0
LAYER
  5
76
330
2
100
AcDbSymbolTableRecord
100
AcDbLayerTableRecord
  2
ANTET
 70
     0
 62
     7
  6
Continuous
370
    -3
390
F
  0
LAYER
  5
77
330
2
100
AcDbSymbolTableRecord
100
AcDbLayerTableRecord
  2
OLCU
 70
     0
 62
   150
  6
Continuous
370
    -3
390
F
  0
LAYER
  5
78
330
2
100
AcDbSymbolTableRecord
100
AcDbLayerTableRecord
  2
METIN
 70
     0
 62
    96
  6
Continuous
370
    -3
390
F
  0
LAYER
  5
79
330
2
100
AcDbSymbolTableRecord
100
AcDbLayerTableRecord
  2
BALON
 70
     0
 62
     5
  6
Continuous
370
    -3
390
F
  0
LAYER
  5
7A
330
2
100
AcDbSymbolTableRecord
100
AcDbLayerTableRecord
  2
VURGU
 70
     0
 62
     7
  6
Continuous
370
    -3
390
F
  0
LAYER
  5
7B
330
2
100
AcDbSymbolTableRecord
100
AcDbLayerTableRecord
  2
SILIK
 70
     0
 62
     7
  6
Continuous
370
    -3
390
F
  0
LAYER
  5
7C
330
2
100
AcDbSymbolTableRecord
100
AcDbLayerTableRecord
  2
MODEL
 70
     0
 62
     7
  6
Continuous
370
    -3
390
F
  0
LAYER
  5
7D
330
2
100
AcDbSymbolTableRecord
100
AcDbLayerTableRecord
  2
DETAYLANDıRMA
 70
     0
 62
   190
  6
Continuous
370
    -3
390
F
  0
LAYER
  5
7E
330
2
100
AcDbSymbolTableRecord
100
AcDbLayerTableRecord
  2
TOLERANS
 70
     0
 62
   230
  6
Continuous
370
    -3
390
F
  0
LAYER
  5
7F
330
2
100
AcDbSymbolTableRecord
100
AcDbLayerTableRecord
  2
MERKEZ_CIZGILERI
 70
     0
 62
    30
  6
Continuous
370
    -3
390
F
  0
LAYER
  5
80
330
2
100
AcDbSymbolTableRecord
100
AcDbLayerTableRecord
  2
KESIT-DETAY_CIZGILERI
 70
     0
 62
     7
  6
Continuous
370
    -3
390
F
  0
LAYER
  5
81
330
2
100
AcDbSymbolTableRecord
100
AcDbLayerTableRecord
  2
\U+041E\U+0421\U+0415\U+0412\U+042B\U+0415
 70
     0
 62
     7
  6
Continuous
370
    -3
390
F
  0
LAYER
  5
82
330
2
100
AcDbSymbolTableRecord
100
AcDbLayerTableRecord
  2
\U+0412\U+041E\U+0414\U+042F\U+041D\U+042B\U+0415_\U+0417\U+041D\U+0410\U+041A\U+0418
 70
     0
 62
    11
  6
Continuous
370
    -3
390
F
  0
ENDTAB
  0
TABLE
  2
STYLE
  5
3
330
0
100
AcDbSymbolTable
 70
     1
  0
STYLE
  5
11
330
3
100
AcDbSymbolTableRecord
100
AcDbTextStyleTableRecord
  2
Standard
 70
     0
 40
0.0
 41
1.0
 50
0.0
 71
     0
 42
3.5
  3
txt
  4

  0
ENDTAB
  0
TABLE
  2
VIEW
  5
6
330
0
100
AcDbSymbolTable
 70
     0
  0
ENDTAB
  0
TABLE
  2
UCS
  5
7
330
0
100
AcDbSymbolTable
 70
     0
  0
ENDTAB
  0
TABLE
  2
APPID
  5
9
330
0
100
AcDbSymbolTable
 70
     1
  0
APPID
  5
12
330
9
100
AcDbSymbolTableRecord
100
AcDbRegAppTableRecord
  2
ACAD
 70
     0
  0
ENDTAB
  0
TABLE
  2
DIMSTYLE
  5
A
330
0
100
AcDbSymbolTable
 70
     1
100
AcDbDimStyleTable
  0
DIMSTYLE
105
27
330
A
100
AcDbSymbolTableRecord
100
AcDbDimStyleTableRecord
  2
ISO-25
 70
     0
 41
2.5
 42
0.625
 43
3.75
 44
1.25
 73
     0
 74
     0
 77
     1
 78
     8
140
2.5
141
2.5
143
0.0393700787
147
0.625
171
     3
172
     1
178
     0
271
     2
272
     2
274
     3
278
    44
283
     0
284
     8
340
11
  0
ENDTAB
  0
TABLE
  2
BLOCK_RECORD
  5
1
330
0
100
AcDbSymbolTable
 70
     1
  0
BLOCK_RECORD
  5
1F
330
1
100
AcDbSymbolTableRecord
100
AcDbBlockTableRecord
  2
*Model_Space
340
22
  0
BLOCK_RECORD
  5
1B
330
1
100
AcDbSymbolTableRecord
100
AcDbBlockTableRecord
  2
*Paper_Space
340
1E
  0
BLOCK_RECORD
  5
23
330
1
100
AcDbSymbolTableRecord
100
AcDbBlockTableRecord
  2
*Paper_Space0
340
26
  0
ENDTAB
  0
ENDSEC
  0
SECTION
  2
BLOCKS
  0
BLOCK
  5
20
330
1F
100
AcDbEntity
  8
0
100
AcDbBlockBegin
  2
*Model_Space
 70
     0
 10
0.0
 20
0.0
 30
0.0
  3
*Model_Space
  1

  0
ENDBLK
  5
21
330
1F
100
AcDbEntity
  8
0
100
AcDbBlockEnd
  0
BLOCK
  5
1C
330
1B
100
AcDbEntity
 67
     1
  8
0
100
AcDbBlockBegin
  2
*Paper_Space
 70
     0
 10
0.0
 20
0.0
 30
0.0
  3
*Paper_Space
  1

  0
ENDBLK
  5
1D
330
1B
100
AcDbEntity
 67
     1
  8
0
100
AcDbBlockEnd
  0
BLOCK
  5
24
330
23
100
AcDbEntity
  8
0
100
AcDbBlockBegin
  2
*Paper_Space0
 70
     0
 10
0.0
 20
0.0
 30
0.0
  3
*Paper_Space0
  1

  0
ENDBLK
  5
25
330
23
100
AcDbEntity
  8
0
100
AcDbBlockEnd
  0
ENDSEC
  0
SECTION
  2
ENTITIES
  0
CIRCLE
  5
83
330
1F
100
AcDbEntity
  8
0
  6
Continuous
 62
     7
370
    25
100
AcDbCircle
 10
135.9944086538
 20
118.27271875
 30
0.0
 40
400.0
  0
CIRCLE
  5
84
330
1F
100
AcDbEntity
  8
0
  6
Continuous
 62
     7
370
    25
100
AcDbCircle
 10
135.9944086538
 20
118.27271875
 30
0.0
 40
352.6
  0
CIRCLE
  5
85
330
1F
100
AcDbEntity
  8
0
  6
Continuous
 62
     7
370
    25
100
AcDbCircle
 10
135.9944086538
 20
118.27271875
 30
0.0
 40
421.4999999999999
  0
CIRCLE
  5
86
330
1F
100
AcDbEntity
  8
0
  6
Continuous
 62
     7
370
    25
100
AcDbCircle
 10
135.9944086538
 20
118.27271875
 30
0.0
 40
452.5
  0
LINE
  5
87
330
1F
100
AcDbEntity
  8
0
  6
Continuous
 62
     7
370
    25
100
AcDbLine
 10
588.4944086538
 20
996.23762012
 30
0.0
 11
588.4944086538
 21
1056.23762012
 31
0.0
  0
LINE
  5
88
330
1F
100
AcDbEntity
  8
0
  6
Continuous
 62
     7
370
    25
100
AcDbLine
 10
-316.5055913462
 20
1056.23762012
 30
0.0
 11
-316.5055913462
 21
996.23762012
 31
0.0
  0
LINE
  5
89
330
1F
100
AcDbEntity
  8
0
  6
Continuous
 62
     7
370
    25
100
AcDbLine
 10
557.4944086538
 20
1056.23762012
 30
0.0
 11
535.9944086538
 21
1091.23762012
 31
0.0
  0
LINE
  5
8A
330
1F
100
AcDbEntity
  8
0
  6
Continuous
 62
     7
370
    25
100
AcDbLine
 10
-264.0055913462
 20
1091.23762012
 30
0.0
 11
-285.5055913462
 21
1056.23762012
 31
0.0
  0
LINE
  5
8B
330
1F
100
AcDbEntity
  8
0
  6
Continuous
 62
     7
370
    25
100
AcDbLine
 10
535.9944086538
 20
1091.23762012
 30
0.0
 11
535.9944086538
 21
1136.23762012
 31
0.0
  0
LINE
  5
8C
330
1F
100
AcDbEntity
  8
0
  6
Continuous
 62
     7
370
    25
100
AcDbLine
 10
-264.0055913462
 20
1136.23762012
 30
0.0
 11
-264.0055913462
 21
1091.23762012
 31
0.0
  0
LINE
  5
8D
330
1F
100
AcDbEntity
  8
0
  6
Continuous
 62
     7
370
    25
100
AcDbLine
 10
588.4944086538
 20
996.23762012
 30
0.0
 11
-316.5055913462
 21
996.23762012
 31
0.0
  0
LINE
  5
8E
330
1F
100
AcDbEntity
  8
0
  6
Continuous
 62
     7
370
    25
100
AcDbLine
 10
588.4944086538
 20
1056.23762012
 30
0.0
 11
-316.5055913462
 21
1056.23762012
 31
0.0
  0
LINE
  5
8F
330
1F
100
AcDbEntity
  8
0
  6
Continuous
 62
     7
370
    25
100
AcDbLine
 10
535.9944086538
 20
1091.23762012
 30
0.0
 11
-264.0055913462
 21
1091.23762012
 31
0.0
  0
LINE
  5
90
330
1F
100
AcDbEntity
  8
0
  6
Continuous
 62
     7
370
    25
100
AcDbLine
 10
535.9944086538
 20
1136.23762012
 30
0.0
 11
-264.0055913462
 21
1136.23762012
 31
0.0
  0
LINE
  5
91
330
1F
100
AcDbEntity
  8
0
  6
Continuous
 62
     7
370
    25
100
AcDbLine
 10
-842.8850589778
 20
570.77271875
 30
0.0
 11
-902.8850589778
 21
570.77271875
 31
0.0
  0
LINE
  5
92
330
1F
100
AcDbEntity
  8
0
  6
Continuous
 62
     7
370
    25
100
AcDbLine
 10
-902.8850589778
 20
-334.22728125
 30
0.0
 11
-842.8850589778
 21
-334.22728125
 31
0.0
  0
LINE
  5
93
330
1F
100
AcDbEntity
  8
0
  6
Continuous
 62
     7
370
    25
100
AcDbLine
 10
-902.8850589778
 20
539.77271875
 30
0.0
 11
-937.8850589778
 21
518.27271875
 31
0.0
  0
LINE
  5
94
330
1F
100
AcDbEntity
  8
0
  6
Continuous
 62
     7
370
    25
100
AcDbLine
 10
-937.8850589778
 20
-281.72728125
 30
0.0
 11
-902.8850589778
 21
-303.22728125
 31
0.0
  0
LINE
  5
95
330
1F
100
AcDbEntity
  8
0
  6
Continuous
 62
     7
370
    25
100
AcDbLine
 10
-937.8850589778
 20
518.27271875
 30
0.0
 11
-982.8850589778
 21
518.27271875
 31
0.0
  0
LINE
  5
96
330
1F
100
AcDbEntity
  8
0
  6
Continuous
 62
     7
370
    25
100
AcDbLine
 10
-982.8850589778
 20
-281.72728125
 30
0.0
 11
-937.8850589778
 21
-281.72728125
 31
0.0
  0
LINE
  5
97
330
1F
100
AcDbEntity
  8
0
  6
Continuous
 62
     7
370
    25
100
AcDbLine
 10
-842.8850589778
 20
570.77271875
 30
0.0
 11
-842.8850589778
 21
-334.22728125
 31
0.0
  0
LINE
  5
98
330
1F
100
AcDbEntity
  8
0
  6
Continuous
 62
     7
370
    25
100
AcDbLine
 10
-902.8850589778
 20
570.77271875
 30
0.0
 11
-902.8850589778
 21
-334.22728125
 31
0.0
  0
LINE
  5
99
330
1F
100
AcDbEntity
  8
0
  6
Continuous
 62
     7
370
    25
100
AcDbLine
 10
-937.8850589778
 20
518.27271875
 30
0.0
 11
-937.8850589778
 21
-281.72728125
 31
0.0
  0
LINE
  5
9A
330
1F
100
AcDbEntity
  8
0
  6
Continuous
 62
     7
370
    25
100
AcDbLine
 10
-982.8850589778
 20
518.27271875
 30
0.0
 11
-982.8850589778
 21
-281.72728125
 31
0.0
  0
LINE
  5
9B
330
1F
100
AcDbEntity
  8
0
  6
Continuous
 62
     7
370
    25
100
AcDbLine
 10
-316.5055913462
 20
-797.5619687908
 30
0.0
 11
-316.5055913462
 21
-857.5619687908
 31
0.0
  0
LINE
  5
9C
330
1F
100
AcDbEntity
  8
0
  6
Continuous
 62
     7
370
    25
100
AcDbLine
 10
588.4944086538
 20
-857.5619687908
 30
0.0
 11
588.4944086538
 21
-797.5619687908
 31
0.0
  0
LINE
  5
9D
330
1F
100
AcDbEntity
  8
0
  6
Continuous
 62
     7
370
    25
100
AcDbLine
 10
-285.5055913462
 20
-857.5619687908
 30
0.0
 11
-264.0055913462
 21
-892.5619687908
 31
0.0
  0
LINE
  5
9E
330
1F
100
AcDbEntity
  8
0
  6
Continuous
 62
     7
370
    25
100
AcDbLine
 10
535.9944086538
 20
-892.5619687908
 30
0.0
 11
557.4944086538
 21
-857.5619687908
 31
0.0
  0
LINE
  5
9F
330
1F
100
AcDbEntity
  8
0
  6
Continuous
 62
     7
370
    25
100
AcDbLine
 10
-264.0055913462
 20
-892.5619687908
 30
0.0
 11
-264.0055913462
 21
-937.5619687908
 31
0.0
  0
LINE
  5
A0
330
1F
100
AcDbEntity
  8
0
  6
Continuous
 62
     7
370
    25
100
AcDbLine
 10
535.9944086538
 20
-937.5619687908
 30
0.0
 11
535.9944086538
 21
-892.5619687908
 31
0.0
  0
LINE
  5
A1
330
1F
100
AcDbEntity
  8
0
  6
Continuous
 62
     7
370
    25
100
AcDbLine
 10
-316.5055913462
 20
-797.5619687908
 30
0.0
 11
588.4944086538
 21
-797.5619687908
 31
0.0
  0
LINE
  5
A2
330
1F
100
AcDbEntity
  8
0
  6
Continuous
 62
     7
370
    25
100
AcDbLine
 10
-316.5055913462
 20
-857.5619687908
 30
0.0
 11
588.4944086538
 21
-857.5619687908
 31
0.0
  0
LINE
  5
A3
330
1F
100
AcDbEntity
  8
0
  6
Continuous
 62
     7
370
    25
100
AcDbLine
 10
-264.0055913462
 20
-892.5619687908
 30
0.0
 11
535.9944086538
 21
-892.5619687908
 31
0.0
  0
LINE
  5
A4
330
1F
100
AcDbEntity
  8
0
  6
Continuous
 62
     7
370
    25
100
AcDbLine
 10
-264.0055913462
 20
-937.5619687908
 30
0.0
 11
535.9944086538
 21
-937.5619687908
 31
0.0
  0
LINE
  5
A5
330
1F
100
AcDbEntity
  8
0
  6
Continuous
 62
     7
370
    25
100
AcDbLine
 10
1078.11005666
 20
-334.22728125
 30
0.0
 11
1138.11005666
 21
-334.22728125
 31
0.0
  0
LINE
  5
A6
330
1F
100
AcDbEntity
  8
0
  6
Continuous
 62
     7
370
    25
100
AcDbLine
 10
1138.11005666
 20
570.77271875
 30
0.0
 11
1078.11005666
 21
570.77271875
 31
0.0
  0
LINE
  5
A7
330
1F
100
AcDbEntity
  8
0
  6
Continuous
 62
     7
370
    25
100
AcDbLine
 10
1138.11005666
 20
-303.22728125
 30
0.0
 11
1173.11005666
 21
-281.72728125
 31
0.0
  0
LINE
  5
A8
330
1F
100
AcDbEntity
  8
0
  6
Continuous
 62
     7
370
    25
100
AcDbLine
 10
1173.11005666
 20
518.27271875
 30
0.0
 11
1138.11005666
 21
539.77271875
 31
0.0
  0
LINE
  5
A9
330
1F
100
AcDbEntity
  8
0
  6
Continuous
 62
     7
370
    25
100
AcDbLine
 10
1173.11005666
 20
-281.72728125
 30
0.0
 11
1218.11005666
 21
-281.72728125
 31
0.0
  0
LINE
  5
AA
330
1F
100
AcDbEntity
  8
0
  6
Continuous
 62
     7
370
    25
100
AcDbLine
 10
1218.11005666
 20
518.27271875
 30
0.0
 11
1173.11005666
 21
518.27271875
 31
0.0
  0
LINE
  5
AB
330
1F
100
AcDbEntity
  8
0
  6
Continuous
 62
     7
370
    25
100
AcDbLine
 10
1078.11005666
 20
118.27271875
 30
0.0
 11
1078.11005666
 21
570.77271875
 31
0.0
  0
LINE
  5
AC
330
1F
100
AcDbEntity
  8
0
  6
Continuous
 62
     7
370
    25
100
AcDbLine
 10
1078.11005666
 20
-334.22728125
 30
0.0
 11
1078.11005666
 21
118.27271875
 31
0.0
  0
LINE
  5
AD
330
1F
100
AcDbEntity
  8
0
  6
Continuous
 62
     7
370
    25
100
AcDbLine
 10
1138.11005666
 20
118.27271875
 30
0.0
 11
1138.11005666
 21
570.77271875
 31
0.0
  0
LINE
  5
AE
330
1F
100
AcDbEntity
  8
0
  6
Continuous
 62
     7
370
    25
100
AcDbLine
 10
1138.11005666
 20
-334.22728125
 30
0.0
 11
1138.11005666
 21
118.27271875
 31
0.0
  0
LINE
  5
AF
330
1F
100
AcDbEntity
  8
0
  6
Continuous
 62
     7
370
    25
100
AcDbLine
 10
1173.11005666
 20
118.27271875
 30
0.0
 11
1173.11005666
 21
518.27271875
 31
0.0
  0
LINE
  5
B0
330
1F
100
AcDbEntity
  8
0
  6
Continuous
 62
     7
370
    25
100
AcDbLine
 10
1173.11005666
 20
-281.72728125
 30
0.0
 11
1173.11005666
 21
118.27271875
 31
0.0
  0
LINE
  5
B1
330
1F
100
AcDbEntity
  8
0
  6
Continuous
 62
     7
370
    25
100
AcDbLine
 10
1218.11005666
 20
118.27271875
 30
0.0
 11
1218.11005666
 21
518.27271875
 31
0.0
  0
LINE
  5
B2
330
1F
100
AcDbEntity
  8
0
  6
Continuous
 62
     7
370
    25
100
AcDbLine
 10
1218.11005666
 20
-281.72728125
 30
0.0
 11
1218.11005666
 21
118.27271875
 31
0.0
  0
LINE
  5
B3
330
1F
100
AcDbEntity
  8
0
  6
Continuous
 62
     7
370
    25
100
AcDbLine
 10
1368.4080547083
 20
-557.5827515414
 30
0.0
 11
1325.9816478371
 21
-533.0905081867
 31
0.0
  0
LINE
  5
B4
330
1F
100
AcDbEntity
  8
0
  6
Continuous
 62
     7
370
    25
100
AcDbLine
 10
873.5184213193
 20
-1316.8647286412
 30
0.0
 11
915.9448281905
 21
-1341.3569719959
 31
0.0
  0
LINE
  5
B5
330
1F
100
AcDbEntity
  8
0
  6
Continuous
 62
     7
370
    25
100
AcDbLine
 10
1274.9850437639
 20
-564.2709315048
 30
0.0
 11
1243.1652386105
 21
-545.9017489888
 31
0.0
  0
LINE
  5
B6
330
1F
100
AcDbEntity
  8
0
  6
Continuous
 62
     7
370
    25
100
AcDbLine
 10
843.1977455561
 20
-1238.7408388933
 30
0.0
 11
875.0175507095
 21
-1257.1100214094
 31
0.0
  0
LWPOLYLINE
  5
B7
330
1F
100
AcDbEntity
  8
0
  6
Continuous
 62
     7
370
    25
100
AcDbPolyline
 90
      114
 70
   128
 43
0.0
 10
1368.4080547083
 20
-557.5827515414
 10
1372.340589435
 20
-559.9332756904
 10
1378.4569089288
 20
-563.9236241831
 10
1384.3889840216
 20
-568.2146100343
 10
1390.1321890596
 20
-572.8028872624
 10
1395.6820456643
 20
-577.6848780668
 10
1401.0342262244
 20
-582.8567756179
 10
1406.1845572706
 20
-588.3145470257
 10
1411.1290227297
 20
-594.0539364841
 10
1415.8637670561
 20
-600.0704685898
 10
1420.3850982388
 20
-606.3594518322
 10
1424.6894906796
 20
-612.9159822512
 10
1428.7735879428
 20
-619.7349472617
 10
1432.6342053722
 20
-626.8110296398
 10
1436.2683325745
 20
-634.1387116695
 10
1439.6731357665
 20
-641.7122794446
 10
1442.8459599853
 20
-649.5258273249
 10
1445.7843311578
 20
-657.5732625406
 10
1448.4859580307
 20
-665.848309944
 10
1450.9487339566
 20
-674.344516902
 10
1453.1707385369
 20
-683.0552583279
 10
1455.1502391192
 20
-691.9737418477
 10
1456.8856921486
 20
-701.0930130961
 10
1458.3757443709
 20
-710.4059611397
 10
1459.6192338884
 20
-719.9053240219
 10
1460.6151910652
 20
-729.5836944251
 10
1461.3628392839
 20
-739.4335254473
 10
1461.8615955509
 20
-749.4471364865
 10
1462.1110709512
 20
-759.6167192301
 10
1462.1110709512
 20
-769.9343437432
 10
1461.8615955509
 20
-780.3919646528
 10
1461.3628392839
 20
-790.9814274206
 10
1460.6151910652
 20
-801.694474702
 10
1459.6192338884
 20
-812.5227527851
 10
1458.3757443709
 20
-823.4578181043
 10
1456.8856921486
 20
-834.4911438246
 10
1455.1502391192
 20
-845.6141264906
 10
1453.1707385369
 20
-856.8180927348
 10
1450.9487339566
 20
-868.0943060415
 10
1448.4859580307
 20
-879.4339735588
 10
1445.7843311578
 20
-890.8282529549
 10
1442.8459599853
 20
-902.2682593136
 10
1439.6731357665
 20
-913.745072062
 10
1436.2683325745
 20
-925.2497419269
 10
1432.6342053722
 20
-936.7732979126
 10
1428.7735879428
 20
-948.3067542969
 10
1424.6894906796
 20
-959.8411176374
 10
1420.3850982388
 20
-971.3673937845
 10
1415.8637670561
 20
-982.8765948949
 10
1411.1290227297
 20
-994.3597464397
 10
1406.1845572706
 20
-1005.8078942027
 10
1401.0342262244
 20
-1017.2121112628
 10
1395.6820456643
 20
-1028.5635049544
 10
1390.1321890596
 20
-1039.8532238023
 10
1384.3889840216
 20
-1051.0724644232
 10
1378.4569089288
 20
-1062.2124783909
 10
1372.340589435
 20
-1073.2645790575
 10
1366.0447948621
 20
-1084.2201483274
 10
1359.5744344813
 20
-1095.0706433772
 10
1352.934553685
 20
-1105.8076033173
 10
1346.1303300525
 20
-1116.4226557893
 10
1339.1670693128
 20
-1126.9075234945
 10
1332.0502012071
 20
-1137.2540306486
 10
1324.7852752551
 20
-1147.4541093565
 10
1317.3779564275
 20
-1157.4998059036
 10
1309.8340207287
 20
-1167.383286958
 10
1302.1593506929
 20
-1177.0968456784
 10
1294.3599307968
 20
-1186.632907724
 10
1286.4418427935
 20
-1195.9840371603
 10
1278.4112609698
 20
-1205.142942258
 10
1270.2744473319
 20
-1214.1024811783
 10
1262.0377467223
 20
-1222.8556675424
 10
1253.7075818724
 20
-1231.3956758788
 10
1245.2904483941
 20
-1239.7158469458
 10
1236.7929097149
 20
-1247.8096929244
 10
1228.2215919599
 20
-1255.670902477
 10
1219.5831787849
 20
-1263.2933456687
 10
1210.8844061645
 20
-1270.6710787478
 10
1202.13205714
 20
-1277.7983487798
 10
1193.3329565299
 20
-1284.6695981339
 10
1184.4939656081
 20
-1291.2794688168
 10
1175.621976754
 20
-1297.6228066499
 10
1166.7239080775
 20
-1303.6946652892
 10
1157.806698025
 20
-1309.4903100822
 10
1148.8772999685
 20
-1315.0052217592
 10
1139.9426767841
 20
-1320.235099958
 10
1131.0097954222
 20
-1325.175866577
 10
1122.085621475
 20
-1329.8236689549
 10
1113.1771137448
 20
-1334.1748828753
 10
1104.2912188181
 20
-1338.2261153925
 10
1095.4348656484
 20
-1341.9742074771
 10
1086.6149601534
 20
-1345.4162364798
 10
1077.8383798303
 20
-1348.5495184098
 10
1069.1119683922
 20
-1351.3716100281
 10
1060.4425304325
 20
-1353.8803107527
 10
1051.8368261179
 20
-1356.0736643741
 10
1043.3015659179
 20
-1357.9499605811
 10
1034.8434053715
 20
-1359.5077362945
 10
1026.4689398981
 20
-1360.7457768075
 10
1018.1846996538
 20
-1361.6631167335
 10
1009.99714444
 20
-1362.2590407583
 10
1001.912658666
 20
-1362.5330841983
 10
993.9375463705
 20
-1362.4850333627
 10
986.0780263063
 20
-1362.1149257201
 10
978.3402270907
 20
-1361.4230498693
 10
970.7301824267
 20
-1360.4099453142
 10
963.2538263983
 20
-1359.0764020434
 10
955.916988843
 20
-1357.4234599137
 10
948.725390806
 20
-1355.4524078397
 10
941.6846400792
 20
-1353.1647827885
 10
934.8002268281
 20
-1350.5623685813
 10
928.0775193111
 20
-1347.6471945025
 10
921.5217596935
 20
-1344.4215337171
 10
915.9448281905
 20
-1341.3569719959
  0
LWPOLYLINE
  5
B8
330
1F
100
AcDbEntity
  8
0
  6
Continuous
 62
     7
370
    25
100
AcDbPolyline
 90
      158
 70
   128
 43
0.0
 10
1159.6516886098
 20
-527.4451211043
 10
1159.7056502688
 20
-527.4258509855
 10
1168.4579992933
 20
-524.44787393
 10
1177.1567719137
 20
-521.7822179211
 10
1185.7951850887
 20
-519.4309615571
 10
1194.3665028437
 20
-517.395938277
 10
1202.8640415229
 20
-515.6787349307
 10
1211.2811750012
 20
-514.2806905417
 10
1219.6113398511
 20
-513.2028952631
 10
1227.8480404607
 20
-512.446189527
 10
1235.9848540986
 20
-512.01116339
 10
1244.0154359223
 20
-511.8981560723
 10
1251.9335239256
 20
-512.1072556936
 10
1259.7329438217
 20
-512.6382992043
 10
1267.4076138575
 20
-513.4908725127
 10
1274.9515495563
 20
-514.6643108077
 10
1282.358868384
 20
-516.1576990775
 10
1289.623794336
 20
-517.9698728227
 10
1296.7406624416
 20
-520.099418965
 10
1303.7039231813
 20
-522.5446769481
 10
1310.5081468138
 20
-525.3037400335
 10
1317.1480276101
 20
-528.3744567868
 10
1323.6183879909
 20
-531.7544327554
 10
1329.9141825638
 20
-535.4410323358
 10
1336.0305020576
 20
-539.4313808284
 10
1341.9625771504
 20
-543.7223666796
 10
1347.7057821884
 20
-548.3106439077
 10
1353.2556387931
 20
-553.1926347121
 10
1358.6078193532
 20
-558.3645322633
 10
1363.7581503994
 20
-563.822303671
 10
1368.7026158585
 20
-569.5616931294
 10
1373.4373601849
 20
-575.5782252351
 10
1377.9586913676
 20
-581.8672084775
 10
1382.2630838084
 20
-588.4237388965
 10
1386.3471810716
 20
-595.242703907
 10
1390.207798501
 20
-602.3187862852
 10
1393.8419257033
 20
-609.6464683148
 10
1397.2467288953
 20
-617.2200360899
 10
1400.4195531141
 20
-625.0335839702
 10
1403.3579242866
 20
-633.0810191859
 10
1406.0595511595
 20
-641.3560665893
 10
1408.5223270854
 20
-649.8522735473
 10
1410.7443316657
 20
-658.5630149733
 10
1412.723832248
 20
-667.481498493
 10
1414.4592852774
 20
-676.6007697414
 10
1415.9493374998
 20
-685.9137177851
 10
1417.1928270172
 20
-695.4130806672
 10
1418.188784194
 20
-705.0914510704
 10
1418.9364324127
 20
-714.9412820926
 10
1419.4351886798
 20
-724.9548931318
 10
1419.68466408
 20
-735.1244758754
 10
1419.68466408
 20
-745.4421003886
 10
1419.4351886798
 20
-755.8997212982
 10
1418.9364324127
 20
-766.4891840659
 10
1418.188784194
 20
-777.2022313474
 10
1417.1928270172
 20
-788.0305094304
 10
1415.9493374998
 20
-798.9655747496
 10
1414.4592852774
 20
-809.99890047
 10
1412.723832248
 20
-821.1218831359
 10
1410.7443316657
 20
-832.3258493801
 10
1408.5223270854
 20
-843.6020626869
 10
1406.0595511595
 20
-854.9417302041
 10
1403.3579242866
 20
-866.3360096002
 10
1400.4195531141
 20
-877.7760159589
 10
1397.2467288953
 20
-889.2528287073
 10
1393.8419257033
 20
-900.7574985722
 10
1390.207798501
 20
-912.2810545579
 10
1386.3471810716
 20
-923.8145109422
 10
1382.2630838084
 20
-935.3488742827
 10
1377.9586913676
 20
-946.8751504298
 10
1373.4373601849
 20
-958.3843515402
 10
1368.7026158585
 20
-969.867503085
 10
1363.7581503994
 20
-981.3156508481
 10
1358.6078193532
 20
-992.7198679081
 10
1353.2556387931
 20
-1004.0712615997
 10
1347.7057821884
 20
-1015.3609804476
 10
1341.9625771504
 20
-1026.5802210685
 10
1336.0305020576
 20
-1037.7202350362
 10
1329.9141825638
 20
-1048.7723357028
 10
1323.6183879909
 20
-1059.7279049727
 10
1317.1480276101
 20
-1070.5784000225
 10
1310.5081468138
 20
-1081.3153599626
 10
1303.7039231813
 20
-1091.9304124346
 10
1296.7406624416
 20
-1102.4152801398
 10
1289.623794336
 20
-1112.7617872939
 10
1282.3588683839
 20
-1122.9618660018
 10
1274.9515495563
 20
-1133.007562549
 10
1267.4076138575
 20
-1142.8910436033
 10
1259.7329438217
 20
-1152.6046023238
 10
1251.9335239256
 20
-1162.1406643693
 10
1244.0154359223
 20
-1171.4917938056
 10
1235.9848540986
 20
-1180.6506989033
 10
1227.8480404607
 20
-1189.6102378237
 10
1219.6113398511
 20
-1198.3634241877
 10
1211.2811750012
 20
-1206.9034325241
 10
1202.8640415229
 20
-1215.2236035911
 10
1194.3665028437
 20
-1223.3174495697
 10
1185.7951850887
 20
-1231.1786591223
 10
1177.1567719137
 20
-1238.801102314
 10
1168.4579992933
 20
-1246.1788353931
 10
1159.7056502688
 20
-1253.3061054251
 10
1150.9065496587
 20
-1260.1773547793
 10
1142.067558737
 20
-1266.7872254621
 10
1133.1955698828
 20
-1273.1305632952
 10
1124.2975012063
 20
-1279.2024219346
 10
1115.3802911538
 20
-1284.9980667275
 10
1106.4508930973
 20
-1290.5129784045
 10
1097.5162699129
 20
-1295.7428566033
 10
1088.583388551
 20
-1300.6836232223
 10
1079.6592146038
 20
-1305.3314256002
 10
1070.7507068736
 20
-1309.6826395206
 10
1061.8648119469
 20
-1313.7338720378
 10
1053.0084587772
 20
-1317.4819641224
 10
1044.1885532823
 20
-1320.9239931251
 10
1035.4119729591
 20
-1324.0572750551
 10
1026.6855615211
 20
-1326.8793666734
 10
1018.0161235613
 20
-1329.388067398
 10
1009.4104192467
 20
-1331.5814210194
 10
1000.8751590467
 20
-1333.4577172264
 10
992.4169985004
 20
-1335.0154929398
 10
984.0425330269
 20
-1336.2535334528
 10
975.7582927826
 20
-1337.1708733788
 10
967.5707375688
 20
-1337.7667974036
 10
959.4862517948
 20
-1338.0408408436
 10
951.5111394993
 20
-1337.992790008
 10
943.6516194351
 20
-1337.6226823654
 10
935.9138202195
 20
-1336.9308065146
 10
928.3037755555
 20
-1335.9177019595
 10
920.8274195271
 20
-1334.5841586887
 10
913.4905819718
 20
-1332.931216559
 10
906.2989839348
 20
-1330.960164485
 10
899.258233208
 20
-1328.6725394338
 10
892.3738199569
 20
-1326.0701252266
 10
885.65111244
 20
-1323.1549511478
 10
879.0953528223
 20
-1319.9292903624
 10
872.7116530879
 20
-1316.3956581436
 10
866.504991054
 20
-1312.5568099115
 10
860.4802064889
 20
-1308.4157390846
 10
854.6419973383
 20
-1303.9756747453
 10
848.9949160621
 20
-1299.2400791222
 10
843.5433660845
 20
-1294.2126448903
 10
838.29159836
 20
-1288.8972922916
 10
833.2437080593
 20
-1283.2981660781
 10
828.4036313753
 20
-1277.4196322802
 10
823.7751424542
 20
-1271.2662748015
 10
819.3618504524
 20
-1264.8428918452
 10
815.1671967224
 20
-1258.1544921721
 10
811.1944521289
 20
-1251.206291195
 10
807.4467144986
 20
-1244.003706912
 10
803.9269062046
 20
-1236.5523556818
 10
800.6377718876
 20
-1228.8580478438
 10
797.5818763155
 20
-1220.9267831879
 10
794.7616023838
 20
-1212.7647462757
 10
792.1791492572
 20
-1204.378301618
 10
789.8365306551
 20
-1195.7739887121
 10
787.7355732809
 20
-1186.9585169424
 10
785.877915398
 20
-1177.9387603487
 10
785.451141328
 20
-1175.6497155342
  0
LWPOLYLINE
  5
B9
330
1F
100
AcDbEntity
  8
0
  6
Continuous
 62
     7
370
    25
100
AcDbPolyline
 90
      134
 70
   128
 43
0.0
 10
1232.1256677278
 20
-540.1963587667
 10
1236.2066914427
 20
-540.221793987
 10
1243.7860000807
 20
-540.5144267773
 10
1251.2456656252
 20
-541.1264128998
 10
1258.5794917249
 20
-542.0572440099
 10
1265.7813865566
 20
-543.3061469151
 10
1272.8453678854
 20
-544.8720842175
 10
1279.7655680338
 20
-546.7537551755
 10
1286.536238756
 20
-548.9495967841
 10
1293.1517560123
 20
-551.4577850732
 10
1299.6066246408
 20
-554.2762366229
 10
1305.8954829218
 20
-557.402610294
 10
1312.013107032
 20
-560.8343091722
 10
1317.9544153831
 20
-564.5684827262
 10
1323.714472843
 20
-568.6020291744
 10
1329.2884948352
 20
-572.9315980623
 10
1334.6718513132
 20
-577.5535930449
 10
1339.8600706062
 20
-582.4641748743
 10
1344.8488431334
 20
-587.6592645886
 10
1349.6340249842
 20
-593.1345469005
 10
1354.2116413601
 20
-598.8854737811
 10
1358.577889876
 20
-604.9072682382
 10
1362.7291437192
 20
-611.1949282843
 10
1366.6619546617
 20
-617.7432310911
 10
1370.3730559245
 20
-624.5467373283
 10
1373.8593648911
 20
-631.5997956814
 10
1377.1179856682
 20
-638.8965475461
 10
1380.1462114912
 20
-646.430931895
 10
1382.9415269722
 20
-654.1966903115
 10
1385.5016101899
 20
-662.1873721889
 10
1387.8243346179
 20
-670.3963400886
 10
1389.9077708913
 20
-678.8167752531
 10
1391.7501884092
 20
-687.4416832702
 10
1393.3500567726
 20
-696.2638998829
 10
1394.7060470548
 20
-705.2760969403
 10
1395.8170329062
 20
-714.4707884849
 10
1396.6820914894
 20
-723.8403369703
 10
1397.3005042457
 20
-733.3769596061
 10
1397.6717574922
 20
-743.0727348217
 10
1397.7955428483
 20
-752.9196088473
 10
1397.6717574922
 20
-762.909402403
 10
1397.3005042457
 20
-773.0338174932
 10
1396.6820914894
 20
-783.2844442994
 10
1395.8170329062
 20
-793.6527681654
 10
1394.7060470548
 20
-804.1301766707
 10
1393.3500567726
 20
-814.7079667834
 10
1391.7501884092
 20
-825.3773520903
 10
1389.9077708913
 20
-836.1294700947
 10
1387.8243346179
 20
-846.9553895782
 10
1385.5016101899
 20
-857.8461180196
 10
1382.9415269722
 20
-868.792609064
 10
1380.1462114912
 20
-879.7857700377
 10
1377.1179856682
 20
-890.8164695006
 10
1373.8593648911
 20
-901.8755448313
 10
1370.3730559245
 20
-912.9538098384
 10
1366.6619546617
 20
-924.0420623902
 10
1362.7291437192
 20
-935.1310920591
 10
1358.577889876
 20
-946.211687772
 10
1354.2116413601
 20
-957.2746454614
 10
1349.6340249842
 20
-968.3107757108
 10
1344.8488431334
 20
-979.3109113879
 10
1339.8600706062
 20
-990.265915259
 10
1334.6718513132
 20
-1001.1666875792
 10
1329.2884948352
 20
-1012.0041736508
 10
1323.714472843
 20
-1022.7693713447
 10
1317.9544153831
 20
-1033.453338578
 10
1312.013107032
 20
-1044.0472007415
 10
1305.8954829218
 20
-1054.5421580718
 10
1299.6066246407
 20
-1064.9294929602
 10
1293.1517560123
 20
-1075.2005771945
 10
1286.536238756
 20
-1085.346879126
 10
1279.7655680338
 20
-1095.3599707556
 10
1272.8453678854
 20
-1105.2315347353
 10
1265.7813865566
 20
-1114.9533712767
 10
1258.5794917249
 20
-1124.5174049621
 10
1251.2456656252
 20
-1133.915691452
 10
1243.7860000807
 20
-1143.1404240848
 10
1236.2066914427
 20
-1152.1839403606
 10
1228.5140354441
 20
-1161.0387283067
 10
1220.714421969
 20
-1169.697432717
 10
1212.8143297459
 20
-1178.1528612614
 10
1204.8203209653
 20
-1186.3979904606
 10
1196.7390358296
 20
-1194.42597152
 10
1188.5771870367
 20
-1202.2301360183
 10
1180.3415542049
 20
-1209.8040014469
 10
1172.0389782406
 20
-1217.1412765946
 10
1163.6763556567
 20
-1224.2358667732
 10
1155.2606328434
 20
-1231.0818788802
 10
1146.7988002987
 20
-1237.6736262936
 10
1138.2978868213
 20
-1244.0056335961
 10
1129.7649536725
 20
-1250.0726411224
 10
1121.2070887106
 20
-1255.8696093289
 10
1112.6314005036
 20
-1261.3917229792
 10
1104.045012424
 20
-1266.6343951442
 10
1095.4550567324
 20
-1271.5932710123
 10
1086.8686686529
 20
-1276.2642315063
 10
1078.2929804458
 20
-1280.6433967053
 10
1069.7351154839
 20
-1284.7271290672
 10
1061.2021823351
 20
-1288.5120364505
 10
1052.7012688577
 20
-1291.9949749321
 10
1044.239436313
 20
-1295.1730514182
 10
1035.8237134997
 20
-1298.0436260481
 10
1027.4610909158
 20
-1300.6043143865
 10
1019.1585149516
 20
-1302.8529894045
 10
1010.9228821197
 20
-1304.787783246
 10
1002.7610333269
 20
-1306.4070887797
 10
994.6797481911
 20
-1307.7095609338
 10
986.6857394105
 20
-1308.6941178132
 10
978.7856471874
 20
-1309.3599415983
 10
970.9860337123
 20
-1309.7064792244
 10
963.2933777137
 20
-1309.7334428409
 10
955.7140690758
 20
-1309.4408100506
 10
948.2544035312
 20
-1308.8288239281
 10
940.9205774315
 20
-1307.8979928181
 10
933.7186825998
 20
-1306.6490899129
 10
926.6547012711
 20
-1305.0831526105
 10
919.7345011226
 20
-1303.2014816525
 10
912.9638304004
 20
-1301.0056400439
 10
906.3483131441
 20
-1298.4974517547
 10
899.8934445157
 20
-1295.679000205
 10
893.6045862346
 20
-1292.552626534
 10
887.4869621244
 20
-1289.1209276557
 10
881.5456537733
 20
-1285.3867541018
 10
875.7855963134
 20
-1281.3532076535
 10
870.2115743212
 20
-1277.0236387656
 10
864.8282178432
 20
-1272.4016437831
 10
859.6399985503
 20
-1267.4910619537
 10
854.651226023
 20
-1262.2959722393
 10
849.8660441722
 20
-1256.8206899275
 10
845.2884277963
 20
-1251.0697630469
 10
840.9221792804
 20
-1245.0479685897
 10
836.7709254372
 20
-1238.7603085437
 10
832.8381144947
 20
-1232.2120057369
 10
832.736317837
 20
-1232.0339668251
  0
LWPOLYLINE
  5
BA
330
1F
100
AcDbEntity
  8
0
  6
Continuous
 62
     7
370
    25
100
AcDbPolyline
 90
      213
 70
   128
 43
0.0
 10
760.3387796087
 20
-1055.6029163056
 10
760.4629938017
 20
-1045.8524803546
 10
760.8355272803
 20
-1035.96719382
 10
761.4560528381
 20
-1025.9557392156
 10
762.3240254508
 20
-1015.8269098721
 10
763.4386827547
 20
-1005.5896022137
 10
764.7990457161
 20
-995.2528079438
 10
766.4039194917
 20
-984.8256061479
 10
768.2518944773
 20
-974.3171553186
 10
770.3413475468
 20
-963.7366853117
 10
772.6704434771
 20
-953.0934892397
 10
775.2371365605
 20
-942.3969153088
 10
778.0391724011
 20
-931.6563586084
 10
781.0740898952
 20
-920.8812528595
 10
784.339223393
 20
-910.0810621279
 10
787.8317050396
 20
-899.2652725128
 10
791.5484672941
 20
-888.4433838139
 10
795.4862456239
 20
-877.6249011881
 10
799.6415813721
 20
-866.8193268007
 10
804.0108247951
 20
-856.036151479
 10
808.5901382687
 20
-845.2848463771
 10
813.3754996581
 20
-834.5748546562
 10
818.3627058514
 20
-823.9155831911
 10
823.5473764509
 20
-813.3163943074
 10
828.9249576203
 20
-802.7865975589
 10
834.4907260851
 20
-792.33544155
 10
840.2397932806
 20
-781.9721058132
 10
846.1671096461
 20
-771.7056927458
 10
852.2674690596
 20
-761.5452196154
 10
858.5355134109
 20
-751.4996106398
 10
864.9657373074
 20
-741.5776891483
 10
871.55249291
 20
-731.7881698323
 10
878.2899948935
 20
-722.1396510908
 10
885.1723255282
 20
-712.6406074781
 10
892.1934398774
 20
-703.2993822606
 10
899.3471711068
 20
-694.1241800883
 10
906.6272359013
 20
-685.123059789
 10
914.0272399836
 20
-676.3039272895
 10
921.5406837305
 20
-667.6745286717
 10
929.1609678814
 20
-659.2424433694
 10
936.8813993353
 20
-651.0150775106
 10
944.6951970289
 20
-642.9996574127
 10
952.5954978929
 20
-635.2032232355
 10
960.5753628798
 20
-627.6326227974
 10
968.6277830588
 20
-620.2945055612
 10
976.7456857722
 20
-613.1953167931
 10
984.9219408468
 20
-606.3412919022
 10
993.1493668572
 20
-599.7384509635
 10
1001.4207374333
 20
-593.3925934305
 10
1009.7287876069
 20
-587.3092930409
 10
1018.0662201935
 20
-581.4938929216
 10
1026.4257122011
 20
-575.9515008956
 10
1034.7999212623
 20
-570.6869849952
 10
1043.1814920833
 20
-565.7049691868
 10
1051.5630629043
 20
-561.0098293093
 10
1059.9372719654
 20
-556.6056892308
 10
1068.296763973
 20
-552.4964172263
 10
1076.6341965597
 20
-548.6856225804
 10
1084.9422467333
 20
-545.1766524167
 10
1093.2136173093
 20
-541.9725887585
 10
1101.4410433198
 20
-539.0762458213
 10
1109.6172983944
 20
-536.4901675412
 10
1117.7352011078
 20
-534.2166253407
 10
1125.7876212868
 20
-532.2576161331
 10
1133.7674862737
 20
-530.6148605691
 10
1141.6677871377
 20
-529.2898015253
 10
1149.4815848313
 20
-528.2836028367
 10
1157.2020162852
 20
-527.5971482748
 10
1164.8223004361
 20
-527.2310407713
 10
1172.3357441829
 20
-527.185601888
 10
1179.7357482653
 20
-527.4608715354
 10
1187.0158130598
 20
-528.0566079365
 10
1194.1695442892
 20
-528.9722878402
 10
1201.1906586384
 20
-530.2071069799
 10
1208.0729892731
 20
-531.7599807807
 10
1214.8104912566
 20
-533.6295453117
 10
1221.3972468592
 20
-535.8141584839
 10
1227.8274707557
 20
-538.3119014926
 10
1234.095515107
 20
-541.1205805027
 10
1240.1958745205
 20
-544.2377285756
 10
1246.1231908859
 20
-547.6606078362
 10
1251.8722580815
 20
-551.3862118771
 10
1257.4380265463
 20
-555.4112683998
 10
1262.8156077157
 20
-559.7322420887
 10
1268.0002783151
 20
-564.3453377158
 10
1272.9874845085
 20
-569.2465034749
 10
1277.7728458979
 20
-574.4314345397
 10
1282.3521593714
 20
-579.8955768455
 10
1286.7214027945
 20
-585.6341310887
 10
1290.8767385427
 20
-591.6420569421
 10
1294.8145168725
 20
-597.9140774824
 10
1298.531279127
 20
-604.4446838248
 10
1302.0237607736
 20
-611.2281399614
 10
1305.2888942714
 20
-618.2584877998
 10
1308.3238117655
 20
-625.5295523957
 10
1311.1258476061
 20
-633.0349473768
 10
1313.6925406895
 20
-640.7680805523
 10
1316.0216366198
 20
-648.7221597026
 10
1318.1110896893
 20
-656.8901985455
 10
1319.9590646749
 20
-665.2650228719
 10
1321.5639384505
 20
-673.8392768477
 10
1322.9243014119
 20
-682.6054294743
 10
1324.0389587158
 20
-691.5557812033
 10
1324.9069313285
 20
-700.6824706993
 10
1325.5274568863
 20
-709.9774817446
 10
1325.8999903648
 20
-719.4326502802
 10
1326.0242045579
 20
-729.0396715765
 10
1325.8999903648
 20
-738.7901075275
 10
1325.5274568863
 20
-748.6753940621
 10
1324.9069313285
 20
-758.6868486666
 10
1324.0389587158
 20
-768.81567801
 10
1322.9243014119
 20
-779.0529856685
 10
1321.5639384504
 20
-789.3897799383
 10
1319.9590646749
 20
-799.8169817342
 10
1318.1110896893
 20
-810.3254325636
 10
1316.0216366198
 20
-820.9059025704
 10
1313.6925406895
 20
-831.5490986424
 10
1311.1258476061
 20
-842.2456725733
 10
1308.3238117655
 20
-852.9862292737
 10
1305.2888942713
 20
-863.7613350227
 10
1302.0237607736
 20
-874.5615257542
 10
1298.531279127
 20
-885.3773153693
 10
1294.8145168725
 20
-896.1992040682
 10
1290.8767385427
 20
-907.017686694
 10
1286.7214027945
 20
-917.8232610815
 10
1282.3521593714
 20
-928.6064364031
 10
1277.7728458979
 20
-939.3577415051
 10
1272.9874845085
 20
-950.0677332259
 10
1268.0002783151
 20
-960.7270046911
 10
1262.8156077157
 20
-971.3261935747
 10
1257.4380265463
 20
-981.8559903232
 10
1251.8722580815
 20
-992.3071463321
 10
1246.1231908859
 20
-1002.6704820689
 10
1240.1958745205
 20
-1012.9368951363
 10
1234.095515107
 20
-1023.0973682667
 10
1227.8274707557
 20
-1033.1429772424
 10
1221.3972468592
 20
-1043.0648987339
 10
1214.8104912566
 20
-1052.8544180498
 10
1208.0729892731
 20
-1062.5029367913
 10
1201.1906586384
 20
-1072.001980404
 10
1194.1695442892
 20
-1081.3432056215
 10
1187.0158130598
 20
-1090.5184077938
 10
1179.7357482652
 20
-1099.5195280931
 10
1172.3357441829
 20
-1108.3386605926
 10
1164.8223004361
 20
-1116.9680592104
 10
1157.2020162852
 20
-1125.4001445127
 10
1149.4815848313
 20
-1133.6275103715
 10
1141.6677871377
 20
-1141.6429304694
 10
1133.7674862737
 20
-1149.4393646466
 10
1125.7876212868
 20
-1157.0099650847
 10
1117.7352011078
 20
-1164.348082321
 10
1109.6172983944
 20
-1171.4472710891
 10
1101.4410433198
 20
-1178.3012959799
 10
1093.2136173093
 20
-1184.9041369186
 10
1084.9422467333
 20
-1191.2499944517
 10
1076.6341965597
 20
-1197.3332948413
 10
1068.296763973
 20
-1203.1486949605
 10
1059.9372719654
 20
-1208.6910869866
 10
1051.5630629043
 20
-1213.955602887
 10
1043.1814920833
 20
-1218.9376186954
 10
1034.7999212623
 20
-1223.6327585728
 10
1026.4257122011
 20
-1228.0368986513
 10
1018.0662201935
 20
-1232.1461706558
 10
1009.7287876069
 20
-1235.9569653017
 10
1001.4207374333
 20
-1239.4659354654
 10
993.1493668572
 20
-1242.6699991236
 10
984.9219408468
 20
-1245.5663420608
 10
976.7456857722
 20
-1248.1524203409
 10
968.6277830588
 20
-1250.4259625414
 10
960.5753628797
 20
-1252.384971749
 10
952.5954978929
 20
-1254.027727313
 10
944.6951970289
 20
-1255.3527863568
 10
936.8813993353
 20
-1256.3589850454
 10
929.1609678814
 20
-1257.0454396073
 10
921.5406837305
 20
-1257.4115471109
 10
914.0272399836
 20
-1257.4569859941
 10
906.6272359013
 20
-1257.1817163468
 10
899.3471711068
 20
-1256.5859799456
 10
892.1934398774
 20
-1255.670300042
 10
885.1723255282
 20
-1254.4354809023
 10
878.2899948935
 20
-1252.8826071014
 10
871.55249291
 20
-1251.0130425704
 10
864.9657373074
 20
-1248.8284293982
 10
858.5355134109
 20
-1246.3306863896
 10
852.2674690596
 20
-1243.5220073795
 10
846.1671096461
 20
-1240.4048593065
 10
840.2397932806
 20
-1236.981980046
 10
834.4907260851
 20
-1233.2563760051
 10
828.9249576203
 20
-1229.2313194823
 10
823.5473764508
 20
-1224.9103457935
 10
818.3627058514
 20
-1220.2972501663
 10
813.3754996581
 20
-1215.3960844073
 10
808.5901382687
 20
-1210.2111533424
 10
804.0108247951
 20
-1204.7470110366
 10
799.6415813721
 20
-1199.0084567935
 10
795.4862456239
 20
-1193.00053094
 10
791.5484672941
 20
-1186.7285103997
 10
787.8317050396
 20
-1180.1979040573
 10
784.339223393
 20
-1173.4144479207
 10
781.0740898952
 20
-1166.3841000823
 10
778.0391724011
 20
-1159.1130354865
 10
775.2371365605
 20
-1151.6076405053
 10
772.6704434771
 20
-1143.8745073298
 10
770.3413475468
 20
-1135.9204281795
 10
768.2518944773
 20
-1127.7523893367
 10
766.4039194917
 20
-1119.3775650103
 10
764.7990457161
 20
-1110.8033110344
 10
763.4386827547
 20
-1102.0371584078
 10
762.3240254508
 20
-1093.0868066788
 10
761.4560528381
 20
-1083.9601171829
 10
760.8355272803
 20
-1074.6651061376
 10
760.4629938017
 20
-1065.2099376019
 10
760.3387796087
 20
-1055.6029163056
  0
LWPOLYLINE
  5
BB
330
1F
100
AcDbEntity
  8
0
  6
Continuous
 62
     7
370
    25
100
AcDbPolyline
 90
      200
 70
   128
 43
0.0
 10
793.8556410369
 20
-1036.2540440554
 10
793.9799077522
 20
-1027.0933329443
 10
794.3525840263
 20
-1017.7982781338
 10
794.9732983674
 20
-1008.3781451366
 10
795.8414320339
 20
-998.8423241462
 10
796.9561196514
 20
-989.2003206762
 10
798.3162500749
 20
-979.4617460856
 10
799.9204674969
 20
-969.6363079971
 10
801.7671727986
 20
-959.7338006212
 10
803.8545251439
 20
-949.7640949926
 10
806.1804438147
 20
-939.7371291306
 10
808.7426102846
 20
-929.662898133
 10
811.5384705303
 20
-919.5514442122
 10
814.5652375777
 20
-909.4128466854
 10
817.8198942794
 20
-899.2572119271
 10
821.2991963229
 20
-889.094663295
 10
824.9996754642
 20
-878.9353310384
 10
828.9176429852
 20
-868.7893422008
 10
833.0491933708
 20
-858.6668105244
 10
837.3902082016
 20
-848.577826369
 10
841.9363602597
 20
-838.5324466535
 10
846.6831178418
 20
-828.5406848306
 10
851.6257492767
 20
-818.612500906
 10
856.7593276419
 20
-808.7577915093
 10
862.0787356749
 20
-798.9863800292
 10
867.578670874
 20
-789.308006821
 10
873.2536507843
 20
-779.7323194977
 10
879.0980184623
 20
-770.2688633127
 10
885.1059481152
 20
-760.9270716449
 10
891.2714509081
 20
-751.7162565954
 10
897.5883809338
 20
-742.645599705
 10
904.050441339
 20
-733.7241428017
 10
910.6511906013
 20
-724.9607789877
 10
917.3840489503
 20
-716.3642437748
 10
924.2423049265
 20
-707.9431063761
 10
931.2191220711
 20
-699.7057611646
 10
938.307545741
 20
-691.660419305
 10
945.5005100414
 20
-683.8151005692
 10
952.7908448691
 20
-676.1776253415
 10
960.1712830596
 20
-668.7556068233
 10
967.6344676318
 20
-661.556443444
 10
975.172959121
 20
-654.5873114863
 10
982.7792429948
 20
-647.8551579324
 10
990.4457371441
 20
-641.3666935395
 10
998.1647994408
 20
-635.1283861499
 10
1005.9287353558
 20
-629.1464542442
 10
1013.7298056288
 20
-623.4268607421
 10
1021.5602339834
 20
-617.9753070589
 10
1029.4122148782
 20
-612.7972274217
 10
1037.2779212881
 20
-607.8977834531
 10
1045.1495125057
 20
-603.2818590252
 10
1053.0191419577
 20
-598.954055392
 10
1060.8789650264
 20
-594.9186866023
 10
1068.7211468692
 20
-591.1797751993
 10
1076.5378702287
 20
-587.7410482114
 10
1084.321343225
 20
-584.6059334362
 10
1092.063807123
 20
-581.7775560246
 10
1099.7575440663
 20
-579.2587353645
 10
1107.3948847706
 20
-577.0519822711
 10
1114.9682161685
 20
-575.159496484
 10
1122.4699889987
 20
-573.5831644741
 10
1129.8927253308
 20
-572.3245575635
 10
1137.2290260199
 20
-571.3849303589
 10
1144.4715780818
 20
-570.7652195011
 10
1151.6131619832
 20
-570.4660427314
 10
1158.6466588379
 20
-570.4876982757
 10
1165.5650575033
 20
-570.8301645473
 10
1172.3614615691
 20
-571.4931001683
 10
1179.0290962319
 20
-572.4758443101
 10
1185.5613150486
 20
-573.7774173521
 10
1191.9516065613
 20
-575.3965218578
 10
1198.1936007885
 20
-577.3315438687
 10
1204.2810755746
 20
-579.5805545127
 10
1210.2079627924
 20
-582.1413119272
 10
1215.9683543917
 20
-585.0112634934
 10
1221.5565082889
 20
-588.1875483813
 10
1226.9668540908
 20
-591.6670004009
 10
1232.1939986469
 20
-595.4461511589
 10
1237.2327314259
 20
-599.5212335155
 10
1242.0780297093
 20
-603.8881853401
 10
1246.7250635985
 20
-608.54265356
 10
1251.1692008291
 20
-613.4799985002
 10
1255.4060113883
 20
-618.6952985079
 10
1259.4312719312
 20
-624.1833548585
 10
1263.2409699907
 20
-629.9386969382
 10
1266.8313079769
 20
-635.9555876967
 10
1270.1987069627
 20
-642.2280293666
 10
1273.3398102516
 20
-648.7497694416
 10
1276.2514867236
 20
-655.5143069093
 10
1278.9308339562
 20
-662.5148987317
 10
1281.3751811178
 20
-669.7445665666
 10
1283.58209163
 20
-677.1961037238
 10
1285.5493655965
 20
-684.8620823491
 10
1287.2750419957
 20
-692.7348608283
 10
1288.7574006358
 20
-700.8065914045
 10
1289.9949638697
 20
-709.0692280013
 10
1290.9864980672
 20
-717.5145342426
 10
1291.7310148457
 20
-726.1340916637
 10
1292.2277720544
 20
-734.9193081021
 10
1292.4762745151
 20
-743.8614262632
 10
1292.4762745151
 20
-752.9515324491
 10
1292.2277720544
 20
-762.1805654441
 10
1291.7310148457
 20
-771.5393255476
 10
1290.9864980672
 20
-781.0184837439
 10
1289.9949638697
 20
-790.608591002
 10
1288.7574006358
 20
-800.3000876943
 10
1287.2750419957
 20
-810.0833131263
 10
1285.5493655965
 20
-819.9485151661
 10
1283.58209163
 20
-829.8858599657
 10
1281.3751811178
 20
-839.8854417637
 10
1278.9308339562
 20
-849.9372927595
 10
1276.2514867236
 20
-860.0313930494
 10
1273.3398102516
 20
-870.1576806148
 10
1270.1987069627
 20
-880.306061352
 10
1266.8313079769
 20
-890.4664191343
 10
1263.2409699907
 20
-900.6286258961
 10
1259.4312719312
 20
-910.7825517288
 10
1255.4060113883
 20
-920.9180749782
 10
1251.1692008291
 20
-931.0250923344
 10
1246.7250635985
 20
-941.0935289026
 10
1242.0780297093
 20
-951.1133482463
 10
1237.2327314259
 20
-961.0745623918
 10
1232.1939986469
 20
-970.967241784
 10
1226.9668540908
 20
-980.781525185
 10
1221.5565082889
 20
-990.5076295037
 10
1215.9683543917
 20
-1000.1358595478
 10
1210.2079627924
 20
-1009.6566176882
 10
1204.2810755746
 20
-1019.0604134261
 10
1198.1936007885
 20
-1028.3378728534
 10
1191.9516065613
 20
-1037.4797479969
 10
1185.5613150486
 20
-1046.4769260365
 10
1179.0290962319
 20
-1055.3204383894
 10
1172.3614615691
 20
-1064.0014696504
 10
1165.5650575033
 20
-1072.5113663785
 10
1158.6466588379
 20
-1080.8416457238
 10
1151.6131619832
 20
-1088.9840038825
 10
1144.4715780818
 20
-1096.930324375
 10
1137.2290260199
 20
-1104.6726861362
 10
1129.8927253308
 20
-1112.2033714115
 10
1122.4699889987
 20
-1119.51487345
 10
1114.9682161685
 20
-1126.5999039876
 10
1107.3948847705
 20
-1133.4514005117
 10
1099.7575440663
 20
-1140.0625333015
 10
1092.063807123
 20
-1146.4267122361
 10
1084.321343225
 20
-1152.5375933636
 10
1076.5378702287
 20
-1158.3890852248
 10
1068.7211468692
 20
-1163.9753549252
 10
1060.8789650264
 20
-1169.2908339498
 10
1053.0191419577
 20
-1174.3302237135
 10
1045.1495125057
 20
-1179.088500843
 10
1037.2779212881
 20
-1183.5609221841
 10
1029.4122148782
 20
-1187.74302953
 10
1021.5602339834
 20
-1191.6306540651
 10
1013.7298056288
 20
-1195.2199205208
 10
1005.9287353558
 20
-1198.5072510381
 10
998.1647994408
 20
-1201.4893687347
 10
990.4457371441
 20
-1204.1633009705
 10
982.7792429948
 20
-1206.526382312
 10
975.172959121
 20
-1208.5762571881
 10
967.6344676318
 20
-1210.3108822391
 10
960.1712830596
 20
-1211.7285283529
 10
952.7908448691
 20
-1212.8277823891
 10
945.5005100414
 20
-1213.6075485873
 10
938.307545741
 20
-1214.0670496597
 10
931.2191220711
 20
-1214.2058275656
 10
924.2423049265
 20
-1214.0237439681
 10
917.3840489503
 20
-1213.5209803722
 10
910.6511906013
 20
-1212.6980379435
 10
904.050441339
 20
-1211.555737009
 10
897.5883809338
 20
-1210.0952162389
 10
891.2714509081
 20
-1208.3179315123
 10
885.1059481152
 20
-1206.2256544652
 10
879.0980184623
 20
-1203.8204707249
 10
873.2536507843
 20
-1201.1047778307
 10
867.578670874
 20
-1198.0812828445
 10
862.0787356749
 20
-1194.7529996518
 10
856.7593276419
 20
-1191.1232459576
 10
851.6257492767
 20
-1187.1956399794
 10
846.6831178418
 20
-1182.9740968403
 10
841.9363602597
 20
-1178.4628246663
 10
837.3902082016
 20
-1173.6663203915
 10
833.0491933708
 20
-1168.5893652757
 10
828.9176429852
 20
-1163.2370201383
 10
824.9996754642
 20
-1157.6146203132
 10
821.2991963229
 20
-1151.7277703308
 10
817.8198942794
 20
-1145.5823383313
 10
814.5652375777
 20
-1139.184450215
 10
811.5384705303
 20
-1132.5404835357
 10
808.7426102846
 20
-1125.6570611441
 10
806.1804438147
 20
-1118.5410445852
 10
803.8545251439
 20
-1111.1995272592
 10
801.7671727986
 20
-1103.6398273501
 10
799.9204674969
 20
-1095.8694805311
 10
798.3162500749
 20
-1087.8962324531
 10
796.9561196514
 20
-1079.7280310231
 10
795.8414320339
 20
-1071.373018482
 10
794.9732983674
 20
-1062.8395232878
 10
794.3525840263
 20
-1054.1360518143
 10
793.9799077522
 20
-1045.271279871
 10
793.8556410369
 20
-1036.2540440554
  0
LWPOLYLINE
  5
BC
330
1F
100
AcDbEntity
  8
0
  6
Continuous
 62
     7
370
    25
100
AcDbPolyline
 90
      108
 70
   128
 43
0.0
 10
1274.9850437639
 20
-564.2709315048
 10
1277.9429960393
 20
-566.0297903522
 10
1283.6920632349
 20
-569.7553943931
 10
1289.2578316997
 20
-573.7804509158
 10
1294.6354128691
 20
-578.1014246047
 10
1299.8200834685
 20
-582.7145202318
 10
1304.8072896618
 20
-587.6156859909
 10
1309.5926510513
 20
-592.8006170557
 10
1314.1719645248
 20
-598.2647593615
 10
1318.5412079479
 20
-604.0033136047
 10
1322.6965436961
 20
-610.0112394581
 10
1326.6343220259
 20
-616.2832599984
 10
1330.3510842804
 20
-622.8138663408
 10
1333.843565927
 20
-629.5973224775
 10
1337.1086994247
 20
-636.6276703158
 10
1340.1436169189
 20
-643.8987349117
 10
1342.9456527595
 20
-651.4041298928
 10
1345.5123458429
 20
-659.1372630683
 10
1347.8414417732
 20
-667.0913422186
 10
1349.9308948427
 20
-675.2593810615
 10
1351.7788698283
 20
-683.6342053879
 10
1353.3837436038
 20
-692.2084593637
 10
1354.7441065653
 20
-700.9746119903
 10
1355.8587638692
 20
-709.9249637193
 10
1356.7267364819
 20
-719.0516532153
 10
1357.3472620397
 20
-728.3466642606
 10
1357.7197955182
 20
-737.8018327962
 10
1357.8440097113
 20
-747.4088540925
 10
1357.7197955182
 20
-757.1592900435
 10
1357.3472620397
 20
-767.0445765781
 10
1356.7267364819
 20
-777.0560311826
 10
1355.8587638692
 20
-787.184860526
 10
1354.7441065653
 20
-797.4221681845
 10
1353.3837436038
 20
-807.7589624543
 10
1351.7788698283
 20
-818.1861642502
 10
1349.9308948427
 20
-828.6946150796
 10
1347.8414417732
 20
-839.2750850864
 10
1345.5123458429
 20
-849.9182811584
 10
1342.9456527595
 20
-860.6148550894
 10
1340.1436169189
 20
-871.3554117897
 10
1337.1086994247
 20
-882.1305175387
 10
1333.843565927
 20
-892.9307082702
 10
1330.3510842804
 20
-903.7464978854
 10
1326.6343220259
 20
-914.5683865842
 10
1322.6965436961
 20
-925.38686921
 10
1318.5412079479
 20
-936.1924435975
 10
1314.1719645248
 20
-946.9756189191
 10
1309.5926510513
 20
-957.7269240211
 10
1304.8072896618
 20
-968.436915742
 10
1299.8200834685
 20
-979.0961872071
 10
1294.6354128691
 20
-989.6953760907
 10
1289.2578316997
 20
-1000.2251728393
 10
1283.6920632349
 20
-1010.6763288481
 10
1277.9429960393
 20
-1021.0396645849
 10
1272.0156796738
 20
-1031.3060776523
 10
1265.9153202604
 20
-1041.4665507827
 10
1259.6472759091
 20
-1051.5121597584
 10
1253.2170520126
 20
-1061.4340812499
 10
1246.63029641
 20
-1071.2236005658
 10
1239.8927944265
 20
-1080.8721193073
 10
1233.0104637918
 20
-1090.37116292
 10
1225.9893494426
 20
-1099.7123881376
 10
1218.8356182132
 20
-1108.8875903098
 10
1211.5555534186
 20
-1117.8887106091
 10
1204.1555493363
 20
-1126.7078431087
 10
1196.6421055895
 20
-1135.3372417264
 10
1189.0218214386
 20
-1143.7693270287
 10
1181.3013899847
 20
-1151.9966928875
 10
1173.487592291
 20
-1160.0121129854
 10
1165.5872914271
 20
-1167.8085471626
 10
1157.6074264402
 20
-1175.3791476007
 10
1149.5550062612
 20
-1182.717264837
 10
1141.4371035478
 20
-1189.8164536051
 10
1133.2608484732
 20
-1196.670478496
 10
1125.0334224627
 20
-1203.2733194346
 10
1116.7620518867
 20
-1209.6191769677
 10
1108.4540017131
 20
-1215.7024773573
 10
1100.1165691264
 20
-1221.5178774765
 10
1091.7570771188
 20
-1227.0602695026
 10
1083.3828680577
 20
-1232.324785403
 10
1075.0012972367
 20
-1237.3068012114
 10
1066.6197264157
 20
-1242.0019410888
 10
1058.2455173545
 20
-1246.4060811673
 10
1049.8860253469
 20
-1250.5153531718
 10
1041.5485927603
 20
-1254.3261478178
 10
1033.2405425867
 20
-1257.8351179814
 10
1024.9691720106
 20
-1261.0391816396
 10
1016.7417460002
 20
-1263.9355245769
 10
1008.5654909256
 20
-1266.5216028569
 10
1000.4475882122
 20
-1268.7951450574
 10
992.3951680331
 20
-1270.754154265
 10
984.4153030463
 20
-1272.396909829
 10
976.5150021823
 20
-1273.7219688728
 10
968.7012044887
 20
-1274.7281675614
 10
960.9807730348
 20
-1275.4146221233
 10
953.3604888838
 20
-1275.7807296269
 10
945.847045137
 20
-1275.8261685101
 10
938.4470410547
 20
-1275.5508988628
 10
931.1669762602
 20
-1274.9551624616
 10
924.0132450308
 20
-1274.039482558
 10
916.9921306816
 20
-1272.8046634183
 10
910.1098000469
 20
-1271.2517896174
 10
903.3722980634
 20
-1269.3822250864
 10
896.7855424607
 20
-1267.1976119143
 10
890.3553185642
 20
-1264.6998689056
 10
884.087274213
 20
-1261.8911898955
 10
877.9869147995
 20
-1258.7740418225
 10
875.0175507095
 20
-1257.1100214094
  0
LWPOLYLINE
  5
BD
330
1F
100
AcDbEntity
  8
0
  6
Continuous
 62
     7
370
    25
100
AcDbPolyline
 90
       70
 70
   128
 43
0.0
 10
866.4047967867
 20
-1078.1357801919
 10
866.5290635019
 20
-1068.9750690808
 10
866.901739776
 20
-1059.6800142703
 10
867.5224541171
 20
-1050.2598812731
 10
868.3905877837
 20
-1040.7240602827
 10
869.5052754011
 20
-1031.0820568127
 10
870.8654058246
 20
-1021.3434822221
 10
872.4696232467
 20
-1011.5180441336
 10
874.3163285483
 20
-1001.6155367577
 10
876.4036808936
 20
-991.6458311291
 10
878.7295995644
 20
-981.6188652671
 10
881.2917660343
 20
-971.5446342695
 10
884.0876262801
 20
-961.4331803487
 10
887.1143933274
 20
-951.2945828219
 10
890.3690500291
 20
-941.1389480636
 10
893.8483520726
 20
-930.9763994315
 10
897.5488312139
 20
-920.8170671749
 10
901.466798735
 20
-910.6710783373
 10
905.5983491206
 20
-900.5485466609
 10
909.9393639514
 20
-890.4595625056
 10
914.4855160094
 20
-880.41418279
 10
919.2322735915
 20
-870.4224209671
 10
924.1749050264
 20
-860.4942370425
 10
929.3084833916
 20
-850.6395276458
 10
934.6278914246
 20
-840.8681161657
 10
940.1278266238
 20
-831.1897429575
 10
945.802806534
 20
-821.6140556342
 10
951.647174212
 20
-812.1505994492
 10
957.6551038649
 20
-802.8088077814
 10
963.8206066579
 20
-793.597992732
 10
970.1375366835
 20
-784.5273358415
 10
976.5995970887
 20
-775.6058789382
 10
983.200346351
 20
-766.8425151242
 10
989.9332047001
 20
-758.2459799113
 10
996.7914606763
 20
-749.8248425126
 10
1003.7682778208
 20
-741.5874973011
 10
1010.8567014908
 20
-733.5421554415
 10
1018.0496657912
 20
-725.6968367057
 10
1025.3400006188
 20
-718.059361478
 10
1032.7204388094
 20
-710.6373429598
 10
1040.1836233816
 20
-703.4381795805
 10
1047.7221148707
 20
-696.4690476228
 10
1055.3283987445
 20
-689.7368940689
 10
1062.9948928938
 20
-683.248429676
 10
1070.7139551906
 20
-677.0101222865
 10
1078.4778911055
 20
-671.0281903807
 10
1086.2789613785
 20
-665.3085968786
 10
1094.1093897331
 20
-659.8570431954
 10
1101.961370628
 20
-654.6789635582
 10
1109.8270770378
 20
-649.7795195896
 10
1117.6986682554
 20
-645.1635951617
 10
1125.5682977075
 20
-640.8357915285
 10
1133.4281207762
 20
-636.8004227388
 10
1141.2703026189
 20
-633.0615113358
 10
1149.0870259784
 20
-629.6227843479
 10
1156.8704989747
 20
-626.4876695727
 10
1164.6129628727
 20
-623.6592921611
 10
1172.306699816
 20
-621.140471501
 10
1179.9440405203
 20
-618.9337184076
 10
1187.5173719182
 20
-617.0412326205
 10
1195.0191447484
 20
-615.4649006106
 10
1202.4418810806
 20
-614.2062937
 10
1209.7781817696
 20
-613.2666664954
 10
1217.0207338316
 20
-612.6469556376
 10
1224.1623177329
 20
-612.3477788679
 10
1231.1958145876
 20
-612.3694344122
 10
1238.114213253
 20
-612.7119006838
 10
1244.9106173188
 20
-613.3748363048
 10
1251.5782519817
 20
-614.3575804467
 10
1251.9704780677
 20
-614.4260626122
  0
LWPOLYLINE
  5
BE
330
1F
100
AcDbEntity
  8
0
  6
Continuous
 62
     7
370
    25
100
AcDbPolyline
 90
       20
 70
   128
 43
0.0
 10
906.9416618486
 20
-1212.0982614064
 10
905.5983491206
 20
-1210.4711014122
 10
901.466798735
 20
-1205.1187562748
 10
897.5488312139
 20
-1199.4963564497
 10
893.8483520726
 20
-1193.6095064673
 10
890.3690500291
 20
-1187.4640744678
 10
887.1143933274
 20
-1181.0661863515
 10
884.0876262801
 20
-1174.4222196723
 10
881.2917660343
 20
-1167.5387972806
 10
878.7295995644
 20
-1160.4227807218
 10
876.4036808936
 20
-1153.0812633957
 10
874.3163285483
 20
-1145.5215634866
 10
872.4696232466
 20
-1137.7512166676
 10
870.8654058246
 20
-1129.7779685896
 10
869.5052754011
 20
-1121.6097671596
 10
868.3905877837
 20
-1113.2547546185
 10
867.5224541171
 20
-1104.7212594243
 10
866.901739776
 20
-1096.0177879508
 10
866.5290635019
 20
-1087.1530160075
 10
866.4047967867
 20
-1078.1357801919
  0
LWPOLYLINE
  5
BF
330
1F
100
AcDbEntity
  8
0
  6
Continuous
 62
     7
370
    25
100
AcDbPolyline
 90
       51
 70
   128
 43
0.0
 10
866.7380879914
 20
-1092.8252720267
 10
866.9031255194
 20
-1089.2460635427
 10
867.5256142383
 20
-1079.3404765927
 10
868.3963107236
 20
-1069.3175228188
 10
869.5144281085
 20
-1059.1862601768
 10
870.8789559266
 20
-1048.955844503
 10
872.4886610253
 20
-1038.6355212407
 10
874.3420886799
 20
-1028.2346170844
 10
876.4375639086
 20
-1017.7625315515
 10
878.7731929862
 20
-1007.2287284872
 10
881.3468651552
 20
-996.6427275125
 10
884.1562545336
 20
-986.0140954204
 10
887.1988222167
 20
-975.3524375308
 10
890.4718185717
 20
-964.6673890096
 10
893.9722857226
 20
-953.9686061613
 10
897.697060223
 20
-943.2657577024
 10
901.6427759153
 20
-932.5685160238
 10
905.8058669729
 20
-921.886548449
 10
910.1825711222
 20
-911.2295084985
 10
914.768933043
 20
-900.6070271646
 10
919.5608079429
 20
-890.0287042087
 10
924.5538653032
 20
-879.5040994851
 10
929.7435927922
 20
-869.042724302
 10
935.1253003433
 20
-858.6540328255
 10
940.6941243936
 20
-848.347413536
 10
946.4450322788
 20
-838.1321807435
 10
952.3728267817
 20
-828.0175661702
 10
958.472150829
 20
-818.0127106074
 10
964.7374923325
 20
-808.1266556548
 10
971.1631891703
 20
-798.3683355495
 10
977.7434343042
 20
-788.746569092
 10
984.4722810274
 20
-779.2700516763
 10
991.3436483387
 20
-769.9473474318
 10
998.351326438
 20
-760.7868814837
 10
1005.4889823383
 20
-751.7969323389
 10
1012.7501655887
 20
-742.9856244049
 10
1020.1283141044
 20
-734.360920647
 10
1027.6167600963
 20
-725.9306153927
 10
1035.2087360972
 20
-717.7023272872
 10
1042.8973810778
 20
-709.6834924088
 10
1050.6757466468
 20
-701.8813575482
 10
1058.5368033306
 20
-694.3029736598
 10
1066.4734469259
 20
-686.9551894896
 10
1074.4785049198
 20
-679.8446453858
 10
1082.5447429719
 20
-672.9777672974
 10
1090.6648714523
 20
-666.3607609676
 10
1098.8315520289
 20
-659.9996063252
 10
1107.0374042996
 20
-653.9000520801
 10
1115.275012462
 20
-648.0676105287
 10
1123.5369320153
 20
-642.5075525719
 10
1128.5775818812
 20
-639.2568200951
  0
ENDSEC
  0
SECTION
  2
OBJECTS
  0
DICTIONARY
  5
C
330
0
100
AcDbDictionary
281
     1
  3
ACAD_GROUP
350
D
  3
ACAD_LAYOUT
350
1A
  3
ACAD_MLINESTYLE
350
17
  3
ACAD_PLOTSETTINGS
350
19
  3
ACAD_PLOTSTYLENAME
350
E
  3
ACAD_SCALELIST
350
47
  0
DICTIONARY
  5
D
102
{ACAD_REACTORS
330
C
102
}
330
C
100
AcDbDictionary
281
     1
  0
DICTIONARY
  5
1A
102
{ACAD_REACTORS
330
C
102
}
330
C
100
AcDbDictionary
281
     1
  3
Layout1
350
1E
  3
Layout2
350
26
  3
Model
350
22
  0
DICTIONARY
  5
17
102
{ACAD_REACTORS
330
C
102
}
330
C
100
AcDbDictionary
281
     1
  3
Standard
350
18
  0
DICTIONARY
  5
19
102
{ACAD_REACTORS
330
C
102
}
330
C
100
AcDbDictionary
281
     1
  0
ACDBDICTIONARYWDFLT
  5
E
102
{ACAD_REACTORS
330
C
102
}
330
C
100
AcDbDictionary
281
     1
  3
Normal
350
F
100
AcDbDictionaryWithDefault
340
F
  0
DICTIONARY
  5
47
102
{ACAD_REACTORS
330
C
102
}
330
C
100
AcDbDictionary
281
     1
  3
A0
350
48
  3
A1
350
49
  3
A2
350
4A
  3
A3
350
4B
  3
A4
350
4C
  3
A5
350
4D
  3
A6
350
4E
  3
A7
350
4F
  3
A8
350
50
  3
A9
350
51
  3
B0
350
52
  3
B1
350
53
  3
B2
350
54
  3
B3
350
55
  3
B4
350
56
  3
B5
350
57
  3
B6
350
58
  3
B7
350
59
  3
B8
350
5A
  3
B9
350
5B
  3
C0
350
5C
  3
C1
350
5D
  3
C2
350
5E
  3
C3
350
5F
  3
C4
350
60
  3
C5
350
61
  3
C6
350
62
  3
C7
350
63
  3
C8
350
64
  3
C9
350
65
  3
D0
350
66
  3
D1
350
67
  3
D2
350
68
  0
LAYOUT
  5
1E
102
{ACAD_REACTORS
330
1A
102
}
330
1A
100
AcDbPlotSettings
  1

  2
none_device
  4

  6

 40
0.0
 41
0.0
 42
0.0
 43
0.0
 44
0.0
 45
0.0
 46
0.0
 47
0.0
 48
0.0
 49
0.0
140
0.0
141
0.0
142
1.0
143
1.0
 70
   688
 72
     1
 73
     0
 74
     5
  7

 75
    16
147
1.0
148
0.0
149
0.0
100
AcDbLayout
  1
Layout1
 70
     1
 71
     1
 10
0.0
 20
0.0
 11
420.0
 21
297.0
 12
0.0
 22
0.0
 32
0.0
 14
1.0000000000E+20
 24
1.0000000000E+20
 34
1.0000000000E+20
 15
-1.0000000000E+20
 25
-1.0000000000E+20
 35
-1.0000000000E+20
146
0.0
 13
0.0
 23
0.0
 33
0.0
 16
1.0
 26
0.0
 36
0.0
 17
0.0
 27
1.0
 37
0.0
 76
     0
330
1B
  0
LAYOUT
  5
26
102
{ACAD_REACTORS
330
1A
102
}
330
1A
100
AcDbPlotSettings
  1

  2
none_device
  4

  6

 40
0.0
 41
0.0
 42
0.0
 43
0.0
 44
0.0
 45
0.0
 46
0.0
 47
0.0
 48
0.0
 49
0.0
140
0.0
141
0.0
142
1.0
143
1.0
 70
   688
 72
     1
 73
     0
 74
     5
  7

 75
    16
147
1.0
148
0.0
149
0.0
100
AcDbLayout
  1
Layout2
 70
     1
 71
     2
 10
0.0
 20
0.0
 11
0.0
 21
0.0
 12
0.0
 22
0.0
 32
0.0
 14
0.0
 24
0.0
 34
0.0
 15
0.0
 25
0.0
 35
0.0
146
0.0
 13
0.0
 23
0.0
 33
0.0
 16
1.0
 26
0.0
 36
0.0
 17
0.0
 27
1.0
 37
0.0
 76
     0
330
23
  0
LAYOUT
  5
22
102
{ACAD_REACTORS
330
1A
102
}
330
1A
100
AcDbPlotSettings
  1

  2
none_device
  4
Letter_(8.50_x_11.00_Inches)
  6

 40
6.35
 41
6.35
 42
6.35000508
 43
6.35000508
 44
215.9
 45
279.4
 46
0.0
 47
0.0
 48
0.0
 49
0.0
140
0.0
141
0.0
142
1.0
143
1.0
 70
  1712
 72
     1
 73
     0
 74
     0
  7

 75
     0
147
1.0
148
0.0
149
0.0
100
AcDbLayout
  1
Model
 70
     1
 71
     0
 10
0.0
 20
0.0
 11
279.4
 21
215.9
 12
0.0
 22
0.0
 32
0.0
 14
0.0
 24
0.0
 34
0.0
 15
279.4
 25
215.9
 35
0.0
146
0.0
 13
0.0
 23
0.0
 33
0.0
 16
1.0
 26
0.0
 36
0.0
 17
0.0
 27
1.0
 37
0.0
 76
     0
330
1F
331
29
  0
MLINESTYLE
  5
18
102
{ACAD_REACTORS
330
17
102
}
330
17
100
AcDbMlineStyle
  2
Standard
 70
     0
  3

 62
   256
 51
90.0
 52
90.0
 71
     2
 49
0.5
 62
   256
  6
BYLAYER
 49
-0.5
 62
   256
  6
BYLAYER
  0
ACDBPLACEHOLDER
  5
F
102
{ACAD_REACTORS
330
E
102
}
330
E
  0
SCALE
  5
48
102
{ACAD_REACTORS
330
47
102
}
330
47
100
AcDbScale
 70
     0
300
1:1
140
1.0
141
1.0
290
     1
  0
SCALE
  5
49
102
{ACAD_REACTORS
330
47
102
}
330
47
100
AcDbScale
 70
     0
300
1:2
140
1.0
141
2.0
290
     0
  0
SCALE
  5
4A
102
{ACAD_REACTORS
330
47
102
}
330
47
100
AcDbScale
 70
     0
300
1:4
140
1.0
141
4.0
290
     0
  0
SCALE
  5
4B
102
{ACAD_REACTORS
330
47
102
}
330
47
100
AcDbScale
 70
     0
300
1:5
140
1.0
141
5.0
290
     0
  0
SCALE
  5
4C
102
{ACAD_REACTORS
330
47
102
}
330
47
100
AcDbScale
 70
     0
300
1:8
140
1.0
141
8.0
290
     0
  0
SCALE
  5
4D
102
{ACAD_REACTORS
330
47
102
}
330
47
100
AcDbScale
 70
     0
300
1:10
140
1.0
141
10.0
290
     0
  0
SCALE
  5
4E
102
{ACAD_REACTORS
330
47
102
}
330
47
100
AcDbScale
 70
     0
300
1:16
140
1.0
141
16.0
290
     0
  0
SCALE
  5
4F
102
{ACAD_REACTORS
330
47
102
}
330
47
100
AcDbScale
 70
     0
300
1:20
140
1.0
141
20.0
290
     0
  0
SCALE
  5
50
102
{ACAD_REACTORS
330
47
102
}
330
47
100
AcDbScale
 70
     0
300
1:30
140
1.0
141
30.0
290
     0
  0
SCALE
  5
51
102
{ACAD_REACTORS
330
47
102
}
330
47
100
AcDbScale
 70
     0
300
1:40
140
1.0
141
40.0
290
     0
  0
SCALE
  5
52
102
{ACAD_REACTORS
330
47
102
}
330
47
100
AcDbScale
 70
     0
300
1:50
140
1.0
141
50.0
290
     0
  0
SCALE
  5
53
102
{ACAD_REACTORS
330
47
102
}
330
47
100
AcDbScale
 70
     0
300
1:100
140
1.0
141
100.0
290
     0
  0
SCALE
  5
54
102
{ACAD_REACTORS
330
47
102
}
330
47
100
AcDbScale
 70
     0
300
2:1
140
2.0
141
1.0
290
     0
  0
SCALE
  5
55
102
{ACAD_REACTORS
330
47
102
}
330
47
100
AcDbScale
 70
     0
300
4:1
140
4.0
141
1.0
290
     0
  0
SCALE
  5
56
102
{ACAD_REACTORS
330
47
102
}
330
47
100
AcDbScale
 70
     0
300
8:1
140
8.0
141
1.0
290
     0
  0
SCALE
  5
57
102
{ACAD_REACTORS
330
47
102
}
330
47
100
AcDbScale
 70
     0
300
10:1
140
10.0
141
1.0
290
     0
  0
SCALE
  5
58
102
{ACAD_REACTORS
330
47
102
}
330
47
100
AcDbScale
 70
     0
300
100:1
140
100.0
141
1.0
290
     0
  0
SCALE
  5
59
102
{ACAD_REACTORS
330
47
102
}
330
47
100
AcDbScale
 70
     0
300
1/128" = 1'-0"
140
0.0078125
141
12.0
290
     0
  0
SCALE
  5
5A
102
{ACAD_REACTORS
330
47
102
}
330
47
100
AcDbScale
 70
     0
300
1/64" = 1'-0"
140
0.015625
141
12.0
290
     0
  0
SCALE
  5
5B
102
{ACAD_REACTORS
330
47
102
}
330
47
100
AcDbScale
 70
     0
300
1/32" = 1'-0"
140
0.03125
141
12.0
290
     0
  0
SCALE
  5
5C
102
{ACAD_REACTORS
330
47
102
}
330
47
100
AcDbScale
 70
     0
300
1/16" = 1'-0"
140
0.0625
141
12.0
290
     0
  0
SCALE
  5
5D
102
{ACAD_REACTORS
330
47
102
}
330
47
100
AcDbScale
 70
     0
300
3/32" = 1'-0"
140
0.09375
141
12.0
290
     0
  0
SCALE
  5
5E
102
{ACAD_REACTORS
330
47
102
}
330
47
100
AcDbScale
 70
     0
300
1/8" = 1'-0"
140
0.125
141
12.0
290
     0
  0
SCALE
  5
5F
102
{ACAD_REACTORS
330
47
102
}
330
47
100
AcDbScale
 70
     0
300
3/16" = 1'-0"
140
0.1875
141
12.0
290
     0
  0
SCALE
  5
60
102
{ACAD_REACTORS
330
47
102
}
330
47
100
AcDbScale
 70
     0
300
1/4" = 1'-0"
140
0.25
141
12.0
290
     0
  0
SCALE
  5
61
102
{ACAD_REACTORS
330
47
102
}
330
47
100
AcDbScale
 70
     0
300
3/8" = 1'-0"
140
0.375
141
12.0
290
     0
  0
SCALE
  5
62
102
{ACAD_REACTORS
330
47
102
}
330
47
100
AcDbScale
 70
     0
300
1/2" = 1'-0"
140
0.5
141
12.0
290
     0
  0
SCALE
  5
63
102
{ACAD_REACTORS
330
47
102
}
330
47
100
AcDbScale
 70
     0
300
3/4" = 1'-0"
140
0.75
141
12.0
290
     0
  0
SCALE
  5
64
102
{ACAD_REACTORS
330
47
102
}
330
47
100
AcDbScale
 70
     0
300
1" = 1'-0"
140
1.0
141
12.0
290
     0
  0
SCALE
  5
65
102
{ACAD_REACTORS
330
47
102
}
330
47
100
AcDbScale
 70
     0
300
1-1/2" = 1'-0"
140
1.5
141
12.0
290
     0
  0
SCALE
  5
66
102
{ACAD_REACTORS
330
47
102
}
330
47
100
AcDbScale
 70
     0
300
3" = 1'-0"
140
3.0
141
12.0
290
     0
  0
SCALE
  5
67
102
{ACAD_REACTORS
330
47
102
}
330
47
100
AcDbScale
 70
     0
300
6" = 1'-0"
140
6.0
141
12.0
290
     0
  0
SCALE
  5
68
102
{ACAD_REACTORS
330
47
102
}
330
47
100
AcDbScale
 70
     0
300
1'-0" = 1'-0"
140
12.0
141
12.0
290
     0
  0
ENDSEC
  0
EOF
